Hassa Beek

Added on: 2017/06/19
, Number of views: 3342 , no comments

Newbie
Yves Ba
Rate this post >> 
0 votes, average: 0.00 out of 50 votes, average: 0.00 out of 50 votes, average: 0.00 out of 50 votes, average: 0.00 out of 50 votes, average: 0.00 out of 5
x0

 


HASSA BEEK - NANCY AJRAM - GUITAR SOLO



|----------------------|-------------------------|----------------------|
|----------------------|-------------------------|----------------12----|
|----------------14~14/|-15-14-------------------|----------12~12----12-|
|-14h15p14----14-------|-------17-14-------15-15~|----12-14-------------|
|----------17----------|-------------16-12-------|-12-------------------|
|----------------------|-------------------------|----------------------|
                                                   PM


|-------------|-------------------------------|-------------------------------|
|-------------|----------------14-15-17-18-17-|-15-18-15-15-15----------------|
|-------------|-14~---15----14----------------|----------------14----------14-|
|-15-15p14-14~|----14----14-------------------|-------------------15----15----|
|-------------|-------------------------------|----------------------17-------|
|-------------|-------------------------------|-------------------------------|


|-------------------------------------|-12h13p12----12-12-12-|-|-|
|-------------15-13-15-------------13-|----------15----15b15b|-|-|
|-17-16-17-12----------16----12-14----|----------------------|-|-|
|-------------------------15----------|----------------------|-|-|
|-------------------------------------|----------------------|-|-|
|-------------------------------------|----------------------|-|-|

 

Tablature Legend
----------------
h - hammer-on
p - pull-off
/ - slide
~ - vibrato
b - bend

TABS BY YVES BA:
::::::::::::::::::::::::
:: instagram: yves.ba ::
:: snapchat: yves.ba ::
::::::::::::::::::::::::

Leave a Reply

Please log in to post a comment.