adesh kan fe nas intro

Added on: 2016/11/11
, Number of views: 23187 , no comments

Newbie
morees1991
Rate this post >> 
1 vote, average: 5.00 out of 51 vote, average: 5.00 out of 51 vote, average: 5.00 out of 51 vote, average: 5.00 out of 51 vote, average: 5.00 out of 5
x1

E|---00--7-------5-7-5---3-2-0-------------------------

B|-3--------------------------------------------------

G|----------------------------------------------------

D|----------------------------------------------------

A|----------------------------------------------------

E|----------------------------------------------------

=====================================================

E|---0--7-------5-7-5---3-2-0----0-----0----8--7-8-7----

B|-3--------------------------6------4---------------------

G|----------------------------------------------------

D|----------------------------------------------------

A|----------------------------------------------------

E|----------------------------------------------------

=======================================================


E|--5---3--2---------0------7---5----3-----0---7---5--3-------

B|----------------3--------------------3--------------

G|----------------------------------------------------

D|----------------------------------------------------

A|----------------------------------------------------

E|----------------------------------------------------

 i have the can play the full song but for now i give you my intro by ear

 

Leave a Reply

Please log in to post a comment.