law 3ala alby 3

Added on: 2015/04/24
, Number of views: 13311 , no comments

Gold Member
ahmedyosry183
Rate this post >> 
1 vote, average: 5.00 out of 51 vote, average: 5.00 out of 51 vote, average: 5.00 out of 51 vote, average: 5.00 out of 51 vote, average: 5.00 out of 5
x1

(Intro)


E|---------------------------------------------------------|

B|---------------------------------------------------------|

G|-0-----5-7-7-7-8-7-5---5------5-5-5-7-5-------0----------|

D|---7-8---------------8---7--8-----------8-7-8------------|

A|---------------------------------------------------------|

E|---------------------------------------------------------|

 

E|---------------------------------------------------------|

B|---------------------------------------------------------|

G|---------5-----------------------------------------------|

D|-7-8-8-8---8-7-5-7----7-7-8-7-5---5---5-5-7-5---------0--|

A|--------------------------------8--------------8-7-8-----|

E|---------------------------------------------------------|

 

E|---------------------------------------------------------|

B|---------------------------------------------------------|

G|-0-----5-7-7-7-8-7-5---5------5-5-5-7-5-------0----------|

D|---7-8---------------8---7--8-----------8-7-8------------|

A|---------------------------------------------------------|

E|---------------------------------------------------------|

 

E|---------------------------------------------------------|

B|---------------------------------------------------------|

G|---------5-----------------------------------------------|

D|-7-8-8-8---8-7-5-7----7-7-8-7-5---5---5-5-7-5---------0--|

A|--------------------------------8--------------8-7-8-----|

E|---------------------------------------------------------|

 

1st part

E|--------------------------------------------------------|

B|--------------------------------------------------------|

G|-0-7-7-7-7-8-7-5---------5-5-5-7-5----------------------|

D|-----------------8-8-7-8-----------8-7-8-7--------------|

A|--------------------------------------------------------|

E|--------------------------------------------------------|

 

E|--------------------------------------------------------|

B|--------------------------------------------------------|

G|--0----------5-----0---0-----0----------5---5---7-------|

D|----7-8-8-8----8-7---7-----------7-7-8----8-------------|

A|--------------------------9-----------------------------|

E|--------------------------------------------------------|

يكرر التاب كله مرتين

 

E|--------------------------------------------------------|

B|--------------------------------------------------------|

G|-0-7-7-7-7-8-7-5---------5-5-5-7-5----------------------|

D|-----------------8-8-7-8-----------8-7-8-7--------------|

A|--------------------------------------------------------|

E|--------------------------------------------------------|

 

E|--------------------------------------------------------|

B|--------------------------------------------------------|

G|--0----------5-----0---0-----0----------5---5---7-------|

D|----7-8-8-8----8-7---7-----------7-7-8----8-------------|

A|--------------------------9-----------------------------|

E|--------------------------------------------------------|

يكرر التاب كله مرتين

 

2nd part

E|--------------------------------------------------------|

B|-8-10-11-10-10-8-8-6-6----------------------------------|

G|-----------------------8-8-7-8-7-5----------------------|

D|--------------------------------------------------------|

A|--------------------------------------------------------|

E|--------------------------------------------------------|

 

E|--------------------------------------------------------|

B|-6-8-10-8-8-6-6-----------------------------------------|

G|----------------8-8-7-7-5-7-5---------------------------|

D|------------------------------8-------------------------|

A|--------------------------------------------------------|

E|--------------------------------------------------------|

 

E|--------------------------------------------------------|

B|------------6-----6-10-11-10-8-8------------------------|

G|-5-7-8-7-8-----8----------------------------------------|

D|--------------------------------------------------------|

A|--------------------------------------------------------|

E|--------------------------------------------------------|

 

E|--------------------------------------------------------|

B|-8-10-11-10-10-8-8-6-6----------------------------------|

G|-----------------------8-8-7-8-7-5----------------------|

D|--------------------------------------------------------|

A|--------------------------------------------------------|

E|--------------------------------------------------------|

 

E|--------------------------------------------------------|

B|-6-8-10-8-8-6-6-----------------------------------------|

G|----------------8-8-7-7-5-7-5---------------------------|

D|------------------------------8-------------------------|

A|--------------------------------------------------------|

E|--------------------------------------------------------|

 

E|--------------------------------------------------------|

B|------------6-----6-10-8-6------------------------------|

G|-5-7-8-7-8-----8------------8-7-------------------------|

D|--------------------------------------------------------|

A|--------------------------------------------------------|

E|--------------------------------------------------------|

 

E|--------------------------------------------------------|

B|-8-10-11-10-10-8-8-6-6----------------------------------|

G|-----------------------8-8-7-8-7-5----------------------|

D|--------------------------------------------------------|

A|--------------------------------------------------------|

E|--------------------------------------------------------|

 

E|--------------------------------------------------------|

B|-6-8-10-8-8-6-6-----------------------------------------|

G|----------------8-8-7-7-5-7-5---------------------------|

D|------------------------------8-------------------------|

A|--------------------------------------------------------|

E|--------------------------------------------------------|

 

E|--------------------------------------------------------|

B|------------6-----6-10-11-10-8-8------------------------|

G|-5-7-8-7-8-----8----------------------------------------|

D|--------------------------------------------------------|

A|--------------------------------------------------------|

E|--------------------------------------------------------|

 

E|--------------------------------------------------------|

B|-8-10-11-10-10-8-8-6-6----------------------------------|

G|-----------------------8-8-7-8-7-5----------------------|

D|--------------------------------------------------------|

A|--------------------------------------------------------|

E|--------------------------------------------------------|

 

E|--------------------------------------------------------|

B|-6-8-10-8-8-6-6-----------------------------------------|

G|----------------8-8-7-7-5-7-5---------------------------|

D|------------------------------8-------------------------|

A|--------------------------------------------------------|

E|--------------------------------------------------------|

 

E|--------------------------------------------------------|

B|------------6-----6-10-8-6------------------------------|

G|-5-7-8-7-8-----8------------8-7-------------------------|

D|--------------------------------------------------------|

A|--------------------------------------------------------|

E|--------------------------------------------------------|

 

Download Guitar Pro file: Law Ala Alby - All


Leave a Reply

Please log in to post a comment.