يلقاني بعد يومين

أضيف في: 2017/02/10
, عدد المشاهدات : 2909 , 2 تعليقات

مبتدئ
Khalid Al-Wahaibi
<< قيم هذه المشاركة 
2 تقييم, معدل: 3.00 من 52 تقييم, معدل: 3.00 من 52 تقييم, معدل: 3.00 من 52 تقييم, معدل: 3.00 من 52 تقييم, معدل: 3.00 من 5
x2

اول مشاركة لي شخصية اغنية سميرة سعيد كتبت النوته بنفسي الاغنية   طبعا بعد اذا عجبتكم راح انزل الجزاء الثاني والثالث .  

 

Title: Elagani_B3ad_yomeen
Artist: Sameera_said
Copyright: khalid_wahaibi@hotmail.com
Tabber: Stander Tune : E A D G B E
Tempo = 120
Nylon Guitar
E |----------------|--0--------0-------|-----------0-------------|
B |-----0--1--3----|--------3-----3----|--1--0-------------------|
G |--2-------------|-------------------|--------2----------------|
D |----------------|-------------------|-------------------------|
A |----------------|-------------------|-------------------------|
E |----------------|-------------------|-------------------------|


----------------|--------1--0----------|-----0----------|--5--7--8--10---|
--------0--1----|--3-----------3--1----|--3-------------|----------------|
--1--2----------|----------------------|-----------2----|----------------|
----------------|----------------------|----------------|----------------|
----------------|----------------------|----------------|----------------|
----------------|----------------------|----------------|----------------|


--12----10-12-10---|--8--7--5-------|--12-4--5--7----|--8--10-13-12---|
-------------------|----------------|----------------|----------------|
-------------------|----------------|----------------|----------------|
-------------------|----------------|----------------|----------------|
-------------------|----------------|----------------|----------------|
-------------------|----------------|----------------|----------------|


--10-12----5----|----------------|--------0--5----|----------------|
----------------|--1--1--0--0----|----------------|--1--1--0--0----|
----------------|----------------|--2--2----------|----------------|
----------------|----------------|----------------|----------------|
----------------|----------------|----------------|----------------|
----------------|----------------|----------------|----------------|


--------0--5----|----------------|--------5--0----|----------------|
----------------|--0--0----------|----------------|--0--0----------|
--2--2----------|--------2--2----|--1--1----------|--------2--2----|
----------------|----------------|----------------|----------------|
----------------|----------------|----------------|----------------|
----------------|----------------|----------------|----------------|


--------5--0----|----------------|--------5--7----|----------------|
----------------|--3--3--1--1----|--0--0----------|--3--3--1--1----|
--1--1----------|----------------|----------------|----------------|
----------------|----------------|----------------|----------------|
----------------|----------------|----------------|----------------|
----------------|----------------|----------------|----------------|


--------5--7----|--0--0----------|----------------|--0--0----------|
--0--0----------|--------3--3----|--1--1--0-------|--------3--3----|
----------------|----------------|-----------2----|----------------|
----------------|----------------|----------------|----------------|
----------------|----------------|----------------|----------------|
----------------|----------------|----------------|----------------|


----------------||
--1--1--0-------||
-----------2----||
----------------||
----------------||
----------------||

 

Khalid Al-Wahaibi

شكرا جزيلا ع الجهد المبذول عمل اكثر من رائع واتمنى تكمل التاب

اكتب تعليق

.الرجاء تسجيل الدخول لتكتب تعليقا