معاك قلبي 2

أضيف في: 2017/01/10
, عدد المشاهدات : 7442 , 2 تعليقات

عضو ذهبي
HishamSayed
<< قيم هذه المشاركة 
1 تقييم, معدل: 5.00 من 51 تقييم, معدل: 5.00 من 51 تقييم, معدل: 5.00 من 51 تقييم, معدل: 5.00 من 51 تقييم, معدل: 5.00 من 5
x1

Intro:S--> Slide

G|-2-4-5--4--2---0----------------------------------------|
B|-----------------3-2-0---0-2----------------------------|
G|-----------------------2--------------------------------|
D|--------------------------------------------------------|
A|--------------------------------------------------------|
E|--------------------------------------------------------|

 


G|--------------------------------------------------------|
B|-7-9-9s10-10-9-5-5s7-5-3-2-0---0-2----------------------|
G|-----------------------------2--------------------------|
D|--------------------------------------------------------|
A|--------------------------------------------------------|
E|--------------------------------------------------------|


  F#m           E     D

قولي يا حبيبي ليه وانت عني بعيد

    A          E      Bm           D
انا شوقي ليك بيزيد و ان جيت انا برتاح

  F#m        E     D

قولي يا حبيبي ايه اللي غيرني

  A        E         Bm    D
و ازاي بتشغلني عن عمر قبلك راح

 E      F#m       E    D

معاك قلبي وبلاش تغيب عني بتوحشني

E Eb F#m    E   D
معاك قلبي والله ولا بــنساك

        F#m       E    D

معاك قلبي وبلاش تغيب عني بتوحشني


  A            E        Bm
مليش غيرك حبيب قلبي يا أحلى ملاك

Solo:

G|----------------------------------------------------------|
B|-7-9-9s10-10-9-7-5-7s9-12-10-9-7-9s10-10-9-7-5-7-5--------|
G|----------------------------------------------------------|
D|----------------------------------------------------------|
A|----------------------------------------------------------|
E|----------------------------------------------------------|

    F#m       E       D

أحلى أيامي و أجمل سنين تتعاش

 

   A       E      Bm           D
جنبك يا إمّا بلاش، مين غيرك اتمناه

   F#m       E    D

هو ده كلامي حبك مفيش بعديه

  A           E    Bm         D
فتحت عيني عليه وعرفت راحتي معاه

 

 

HishamSayed

بعد اذنك ياريت تفهمني معني ال f#m والحاجات دي لانها هتفرق معايا بجد وشكرا

HishamSayed

لازم تدرس السلالم الموسيقية عشان تعرف...فيه دروس عن الكوردات دي علي اليوتيوب..

اكتب تعليق

.الرجاء تسجيل الدخول لتكتب تعليقا