اديش كان فى ناس

أضيف في: 2016/11/11
, عدد المشاهدات : 2250 , لا يوجد تعليقات

مبتدئ
morees1991
<< قيم هذه المشاركة 
1 تقييم, معدل: 5.00 من 51 تقييم, معدل: 5.00 من 51 تقييم, معدل: 5.00 من 51 تقييم, معدل: 5.00 من 51 تقييم, معدل: 5.00 من 5
x1

E|---0--7-------5-7-5---3-2-0-------------------------

B|-3--------------------------------------------------

G|----------------------------------------------------

D|----------------------------------------------------

A|----------------------------------------------------

E|----------------------------------------------------

=====================================================

E|---0--7-------5-7-5---3-2-0----0-----0----8--7-8-7----

B|-3--------------------------6------4---------------------

G|----------------------------------------------------

D|----------------------------------------------------

A|----------------------------------------------------

E|----------------------------------------------------

=======================================================


E|--5---3--2---------0------7---5----3-----0---7---5--3-------

B|----------------3--------------------3--------------

G|----------------------------------------------------

D|----------------------------------------------------

A|----------------------------------------------------

E|----------------------------------------------------

 i have the can play the full song but for now i give you my intro by ear

 

اكتب تعليق

.الرجاء تسجيل الدخول لتكتب تعليقا