السكة شمال

أضيف في: 2016/09/14
, عدد المشاهدات : 5336 , لا يوجد تعليقات

عضو برونزي
Mohamed Ramadan
<< قيم هذه المشاركة 
0 تقييم, معدل: 0.00 من 50 تقييم, معدل: 0.00 من 50 تقييم, معدل: 0.00 من 50 تقييم, معدل: 0.00 من 50 تقييم, معدل: 0.00 من 5
x0
السلام عليكم
أول حاجة
-------------
هنستخدم فى الأغنية
Capo2
وهتبدأ بصولو و مقطع من الأغنية وهكذا
هكتب كل حاجة تحت
الرتم
تحت تحت فوق كتمة | فوق تحت فوق تحت | تحت فوق كتمة
-------------
دا الصولو

E 0-7-8-----5---535----78---777--57

E  7-8-----5---535----78---777--57

E     5-3-5-8-5-3-5--78--777--57
------------------------------------------------
و دى الكوردات
Am E Am F Gm
------------------------------------------------
نبدأ بقى بالترتيب
صولو

E 0-7-8-----5---535----78---777--57

E  7-8-----5---535----78---777--57

E     5-3-5-8-5-3-5--78--777--57

كوردات
E                                           AM
قاعد مستنى عايش وبغنى وانت الوحيد الى هاتفهمنى
      E                                           Am
بانده والناس مش سامعانى بتشاقلب والناس مش شايفانى
E                                 F                    
من صغرى  بحاول امشى دوغرى ماستسهلتش وطلعت كبرى
E                          F      
بس بلدنا مش عوزانا وبتدينا على قفانا
 
E                         AM        
السكه شمال واليمين  مش شغال على فين رايحين ×2
-----------------------------------------------------------------------------------
E 0-7-8-----5---535----78---777--57

E  7-8-----5---535----78---777--57

E     5-3-5-8-5-3-5--78--777--57
-----------------------------------------------------------------------------------
E                          Am
انا زيى زيك ملناش دور كومبارس فمسرح مهجور
         E                          Am
البطل فيه ابو دم تقيل وانا وانت واقفين طراطير
E                                  F        
وكل حاجه ماشيه عكس من المرسيدس لحد التاكس
E                             F         
وكل خطوه معاها نحس ليه بيتربى فينا اليأس
 
E                         AM        
السكه شمال واليمين مش شغال على فين رايحين ×2

--------------------------------------------------------------------------------
 

E 0-7-8-----5---535----78---777--57

E  7-8-----5---535----78---777--57

E     5-3-5-8-5-3-5--78--777--57
-----------------------------------------------------------------------------------
E                                           Am
احلى ما فيكى راح ببلاش وكلمة الحق ماتسواش
          E                  Am
دفنتوا حق الجدعان وقتلتوا كل الاحلام
            E                             G
والجرح مش عاوز يخف عالمستشفيات عمال بيلف
E                     Am                 
ومين يجيب حق العلاج مانتو قفلتوا فى وشو الباب
E                     F                        
الورد الى فتح الجناين دلوقتى اصبح حقو هاين
 
E                         AM        
السكه شمال واليمين مش شغال على فين رايحين ×2

--------------------------------------------------------------------------------
 
E 0-7-8-----5---535----78---777--57

E  7-8-----5---535----78---777--57

E     5-3-5-8-5-3-5--78--777--57
-----------------------------------------------------------------------------------
 
اكتب تعليق

.الرجاء تسجيل الدخول لتكتب تعليقا