اتجنن

أضيف في: 2016/04/14
, عدد المشاهدات : 4722 , لا يوجد تعليقات

مبتدئ
Akmal A. Bassioni
<< قيم هذه المشاركة 
0 تقييم, معدل: 0.00 من 50 تقييم, معدل: 0.00 من 50 تقييم, معدل: 0.00 من 50 تقييم, معدل: 0.00 من 50 تقييم, معدل: 0.00 من 5
x0


chords : Capo 5

Am - F - E - Am

(CAIROKEE--ETGANIN)
GUITAR SOLO
======================

e|-------6-----7--9--7--6---------6------------------------------------------------------------
B|-----7---7--------------------7---7--6--7--9--7----9/11------------------------------------------
G|---8------------------------8----------------------------------------------------------------
D|---------------------------------------------------------------------------------------------
A|---------------------------------------------------------------------------------------------
E|---------------------------------------------------------------------------------------------


e|---------------------------------------------------------------------------------------------
B|--6-7-6-7-6-7-6--------------------------6/11---12--11--11---11--14-14-14-14--12--11--11-----
G|------------------8-7-8-------------7-8------------------------------------------------------
D|-------------------------8-7-8-7-8-----------------------------------------------------------
A|---------------------------------------------------------------------------------------------
E|---------------------------------------------------------------------------------------------

 

e|--9--9h11--7h9--6-------9--9h11--7h9--6-------9--9h11--7h9--6---7--6---------------------------
B|---------------------------------------------------------------------------------------------
G|---------------------------------------------------------------------------------------------
D|---------------------------------------------------------------------------------------------
A|---------------------------------------------------------------------------------------------
E|---------------------------------------------------------------------------------------------

 


e|----------6---------6--------7--9--7--6-----6--4--2---4--2-----------------------------------
B|-------7---------7----7------------------------------------4---------------------------------
G|----8----------8-----------------------------------------------------------------------------
D|---------------------------------------------------------------------------------------------
A|---------------------------------------------------------------------------------------------
E|---------------------------------------------------------------------------------------------

 

 

اكتب تعليق

.الرجاء تسجيل الدخول لتكتب تعليقا