سلام

أضيف في: 2016/01/31
, عدد المشاهدات : 4777 , لا يوجد تعليقات

عضو فضي
wallaa
<< قيم هذه المشاركة 
2 تقييم, معدل: 4.50 من 52 تقييم, معدل: 4.50 من 52 تقييم, معدل: 4.50 من 52 تقييم, معدل: 4.50 من 52 تقييم, معدل: 4.50 من 5
x2

سلام

عبدالرحمن محمد ومهاب عمر

capo 3


         

           Em

E--------------------------------------------------

B----------------------------0---------------------

G-------------------0-------------0--------0-------

D---------------2-------2--------------2-----------

A--------------------------------------------------

E-------0---------------------------------------

                                                     x2

         A

E--------------------------------------------------

B--------------------------1-----------------------

G-----------------2--------------2------2----------

D-------------2--------2-------------2-------------

A-------0------------------------------------------

E--------------------------------------------------

                                                     x2


                                                                  X6

            D

E------------------------------2---------------------

B-----------------3-----------------3-------3--------

G------------2---------2----------------2------------

D-------0--------------------------------------------

A----------------------------------------------------

E----------------------------------------------------

                                                      x2    


       C

E----------------------------------------------------

B----------------------------1-----------------------

G-----------------0------------------0-------0-------

D------------2--------2-------------------2----------

A-------3--------------------------------------------

E----------------------------------------------------

                                                     x2


          B

E-----------------------------------------------------

B-------------------------3---------------------------

G----------------3------------------3---------3-------

D------------3------3--------------------3------------

A------2----------------------------------------------

E-----------------------------------------------------

                                                      x2


 --> Em .. D .. C .. B

                            x2  

--> C .. B

                  X2 

 DDUUD

    D               Em

بعثنا مع النسيمِ سلاما

       B                C

للحبيبِ الجميلِ حيثُ أقامَ

   D               Em

بعثنا مع النسيمِ سلاما

   B                C

للحبيبِ الجميلِ حيثُ أقامَ

   D               Em

 

وسمعنا ، طيورَ في الروضِ تشدو

  B                C

 فنقلناعنِ الطيورِ كلاما

 

   D               Em

خافقاتي تدقُّ من ألم الوجدْ

   B               C

نشيداً فتحسنُ الأنغاما

 

 

 --> Em .. D .. C .. B

                            x2 

 DDUUD

 

 --> Em .. D .. C .. B

                           x4

 

 

 D

 
 
 
 
و بيتعاد من الاول n_n
اكتب تعليق

.الرجاء تسجيل الدخول لتكتب تعليقا