لا موني اللي غاروا مني

أضيف في: 2016/02/24
, عدد المشاهدات : 11693 , تعليق واحد

عضو بلاتيني
Safé Minoz
<< قيم هذه المشاركة 
4 تقييم, معدل: 4.00 من 54 تقييم, معدل: 4.00 من 54 تقييم, معدل: 4.00 من 54 تقييم, معدل: 4.00 من 54 تقييم, معدل: 4.00 من 5
x4

 

 

 

 

e|-------5-7-8-|-7-5-7-8-7-5-7-5-5-----------5-5--------

B|-5-6-8-------|-------------------8-8-6-6-5-----8-8-6--

G|-------------|:---------------------------------------

D|-------------|----------------------------------------

A|-------------|---------------------------------------

E|-------------|----------------------------------------

|1.                   |2.

e|---------5-7-8-|---7-8-7-5-7-5-4-10-12-10-8-7-8------

B|-5-5-6-8-------|-5--------------------

G|--------------:|--------------------

D|---------------|----------------------

A|---------------|----------------------

E|---------------|---------------------

 

e|-7-5-5-5-5-----------|-7-5-5-5-5--------

B|-----------5-6-5-6-5-|-----------5-6-5-6-5

G|---------------------|---------------------

D|---------------------|-----------------------

A|---------------------|---------------------

E|---------------------|----------------

 

e|-5-7-8-10-8-7-8-7-5-5-5-5-7-8-7-5-4-5----

B|------------------------------------------

G|------------------------------------------

D|------------------------------------------

A|------------------------------------------

E|------------------------------------------

 

 

e|-7---4-5-7-10-8-8-7-7-5-5---7-5-5-----------

B|---5----------------------8-------8-8-6-6-5-

G|------------------------------------------

D|------------------------------------------

A|------------------------------------------

E|------------------------------------------

 

e|-------5-7-8-10-10-12-10-8-7-8-7-5-5-5-5----

B|-5-6-8--------------------------------------

G|------------------------------------------

D|------------------------------------------

A|------------------------------------------

E|------------------------------------------

 

e|-7-5-5-5-5-----------|-7-5-5-5-5-----------5--

B|-----------5-6-5-6-5-|-----------5-6-5-6-5----

G|---------------------|-------------------------

D|---------------------|-------------------------

A|---------------------|-------------------------

E|---------------------|-------------------------

 
 
Accords: rythme: rumba 
Am
G
F
Am
E7
Dm
G
F
Am
Dm
E7
Am
E7
Safé Minoz

جميل...جدا...

اكتب تعليق

.الرجاء تسجيل الدخول لتكتب تعليقا