تحت الياسمينة

أضيف في: 2016/01/28
, عدد المشاهدات : 5235 , لا يوجد تعليقات

عضو بلاتيني
Safé Minoz
<< قيم هذه المشاركة 
1 تقييم, معدل: 5.00 من 51 تقييم, معدل: 5.00 من 51 تقييم, معدل: 5.00 من 51 تقييم, معدل: 5.00 من 51 تقييم, معدل: 5.00 من 5
x1

:

e|-8-7-8-10-8-------5-7-7-8-7---------5---5-7-5------

B|------------5-6-8-------------5-6-8---8-------8-6--

G|----------------------------7----------------------

D|---------------------------------------------------

A|---------------------------------------------------

E|---------------------------------------------------

 

e|------------------------------------------

B|-5-8-6------------------------------------

G|------------------------------------------  :X2

D|------------------------------------------

A|------------------------------------------

E|------------------------------------------

 

e|-8-8-7-5---5---------------5-7-8-10-8-7-7--

B|---------8---5-8-6-5-5-6-8-----------------

G|------------------------------------------ X2

D|------------------------------------------

A|------------------------------------------

 

e|-8-8-7-7-5---7-8-7-5---------------------

B|-----------8---------8-6-8-6-5-5---------

G|------------------------------------------  X2

D|------------------------------------------

A|------------------------------------------

 

 

e|-8-7-8-10-8-------5-7-7-8-7---------5---5-7-5------

B|------------5-6-8-------------5-6-8---8-------8-6--

G|----------------------------7----------------------

D|---------------------------------------------------

A|---------------------------------------------------

E|---------------------------------------------------

 

e|------------------------------------------

B|-5-8-6------------------------------------

G|------------------------------------------  :X2

D|------------------------------------------

A|------------------------------------------

E|------------------------------------------

 

e|-------5-7-8-10-8-8-10-10-8-7-5-8-7-7--------

B|-5-6-8---------------------------------------

G|------------------------------------------

D|------------------------------------------  X2

A|------------------------------------------

E|------------------------------------------

 

e|-10-10-8-7-5---7-8-7-5--------------------

B|-------------8---------8-6-8-6-5-5--------

G|------------------------------------------

D|------------------------------------------ X2

A|------------------------------------------

E|------------------------------------------

accords:

Intro:

Am/G/F/E 

MUSIC: Em/ G / C / Am / G / F / E / Am

G / F / E /Em / G / C / D7 / G / AM / G / F / E

 
 
اكتب تعليق

.الرجاء تسجيل الدخول لتكتب تعليقا