الف ليله

أضيف في: 2015/01/12
, عدد المشاهدات : 5538 , لا يوجد تعليقات

عضو برونزي
Ahmed Reda
<< قيم هذه المشاركة 
1 تقييم, معدل: 1.00 من 51 تقييم, معدل: 1.00 من 51 تقييم, معدل: 1.00 من 51 تقييم, معدل: 1.00 من 51 تقييم, معدل: 1.00 من 5
x1

Alf Leila Wa Leila

 

Tuning: Standard

 

E|---------------------------------------------------|

B|---------------------------------------------------|

G|-------5-2-3-2p0-------5-2-3-2p0-------------------|

D|---------------------------------------------------|

A|---------------------------------------------------|

E|-3-3-3-----------3-3-3-----------------------------|

 

E|---------------------------------------------------|

B|---------------------------------------------------|

G|-------10\8-8\7-7\5-5\3-3-------10\8-8\7-7\5-5\3-3-|

D|---------------------------------------------------|

A|---------------------------------------------------|

E|-3-3-3--------------------3-3-3--------------------|

 

E|---------------------------------------------------|

B|--------6h8-4-6-4-3-------8h10-6-8-4-3-------------|

G|---------------------------------------------------|

D|---------------------------------------------------|

A|---------------------------------------------------|

E|-3-3-3--------------3-3-3--------------------------|

 

Main tune 1

 

E|---------------------------------------------------|

B|---------------------------------------------------|

G|-12(x8)-12\10-10\8-8\7-7\5-5\3-3\2-2p0-0-----------|

D|---------------------------------------------------|

A|---------------------------------------------------|

E|---------------------------------------------------|

 

E|---------------------------------------------------|

B|---------------------------------------------------|

G|-12(x8)-12\10-10\8-8\7-7\5-5\3-3\2-2p0-0-----------|

D|---------------------------------------------------|

A|---------------------------------------------------|

E|---------------------------------------------------|

 

Main tune 2

 

E|---------------------------------------------------|\

B|---------------------------------------------------| |

G|---------------------------------------------------| |

D|-5-5-7-8-12-10-12-12~-10-12-10-8-7-8-10-12-8-10-8-7| |

A|---------------------------------------------------| |

E|---------------------------------------------------|  \

                                                         > x2

E|---------------------------------------------------|  /

B|---------------------------------------------------| |

G|---------------------------------------------------| |

D|-5-7-8-10-7-8-7-5-7-12-----------------------------| |

A|---------------------------------------------------| |

E|---------------------------------------------------| /

 

Violin solo

 

I had a lot of difficulty with this part so this isn't really accurate. Feel free

to email me if you think you've got it.

 

E|---------------------------------------------------|

B|--------------------------1-3---3-1-3-1------------|

G|---0-2-3~-2-3-2-0---0-2-3-----3---------2~-2-3-0---|

D|-5----------------5--------------------------------|

A|---------------------------------------------------|

E|---------------------------------------------------|

 

E|---------------------------------------------------|

B|---------------------------------------------------|

G|---12-10-8-7-5---12-10-8-7-5---10-8-7-5-2-3/5-3-2-0|

D|-5-------------5-------------3---------------------|

A|---------------------------------------------------|

E|---------------------------------------------------|

 

Main tune 2 again (just once this time)

 

Percussion enters

 

E|---------------------------------------------------| \

B|-8-10-11-11/13-10---15\13-13\11-11\10-8-10-11------| |

G|---------------------------------------------------| |

D|---------------------------------------------------| |

A|---------------------------------------------------| |

E|---------------------------------------------------| \

                                                             > x2

E|---------------------------------------------------| /

B|-13\11-11\10-10\8-11-8-----------------------------| |

G|---------------------------------------------------| |

D|---------------------------------------------------| |

A|---------------------------------------------------| |

E|---------------------------------------------------| /

 

Play the notes on the 10th fret in a steady rhythm, then throw the 11th fret note

right in between them.

 

E|-10-10-11-10-10-10-10-11-10-8-6-6-8-9-8-6----------|

B|---------------------------------------------------|

G|---------------------------------------------------|

D|---------------------------------------------------|

A|---------------------------------------------------|

E|---------------------------------------------------|

 

E|-5-6-8-6-5-3-6p3-----------------------------------|

B|---------------------------------------------------|

G|---------------------------------------------------|

D|---------------------------------------------------|

A|---------------------------------------------------|

E|---------------------------------------------------|

 

The slide from the 9th to 8th fret is very fast.

 

E|---------------------------------------------------|

B|-8-6-4-3-3-4-6-8-9\8-8-6-4-6-3-4-6-8-9\8-----------|

G|---------------------------------------------------|

D|---------------------------------------------------|

A|---------------------------------------------------|

E|---------------------------------------------------|

 

E|---------------------------------------------------|

B|---------------------------------------------------|

G|-8-7-5-3-2-0-2---5-3-2-----3-----------------------|

D|-----------------------5-4-------------------------|

A|---------------------------------------------------|

E|---------------------------------------------------|

 

Play everything since Percussion enters again.

 

Change in percussion

 

E|---------------------------------------------------|

B|---------------------------------------------------|

G|---------------------------------------------------|

D|-7-8-10-12-10-8-10-8-7-8-7-5-7-8-10-12-10-8-10-8-7~| x2

A|---------------------------------------------------|

E|---------------------------------------------------|

 

E|---------------------------------------------------|

B|---------------------------------------------------|

G|-7-8-10-12-10-8-10-8-7-8-7-5-7-8-10-12-10-8-10-8-7~|

D|---------------------------------------------------| x2

A|---------------------------------------------------|

E|---------------------------------------------------|

 

Play main tune 1 again

                                                                                          violin

E|--------------------------------------------8\6-8\6|

B|-15-13-11-10-8-8-10-8-8-10-8-8-10-8-10-11-13-------|

G|---------------------------------------------------|

D|---------------------------------------------------| x2

A|---------------------------------------------------|

E|---------------------------------------------------|

 

E|-11-11-11-11\8-8-10-10\6-6-5-6-8-6-5-3-------------|

B|---------------------------------------------------|

G|---------------------------------------------------|

D|---------------------------------------------------|

A|---------------------------------------------------|

E|---------------------------------------------------|

 

That keeps on going for a bit with different instruments

 

Play main tune 1

 

That's It.

Hope You all like it........

 

اكتب تعليق

.الرجاء تسجيل الدخول لتكتب تعليقا