المحقق كونان

أضيف في: 2015/08/31
, عدد المشاهدات : 18602 , 2 تعليقات

عضو برونزي
Sami K. Jebril
<< قيم هذه المشاركة 
2 تقييم, معدل: 5.00 من 52 تقييم, معدل: 5.00 من 52 تقييم, معدل: 5.00 من 52 تقييم, معدل: 5.00 من 52 تقييم, معدل: 5.00 من 5
x2

capo on (1) ,,,,,

it's amazing ... good luck.

 

------|--------------------|---------|-----------------

------|-------0------------|---1--0--|---------0-------

0-----|--------------0-----|--------2|-0-2-0-2----0-----

---4--|---2--------------2-|-4----0--|---------------4--

------|--------------------|---------|------------------

------|---0--------0-------|---------|-3-------3--------

 

-------------------|-------------|----0------------|---

-------------------|-------0-----|-------3--1--0---|-3-

---2---0-----------|-0---------0-|-2-------------2-|-0-

2----------4---2-4-|---2---------|-------0---------|-0-

3------2-----------|-------------|-0---------------|-2-

-------------------|-0-----0-----|-----------------|-3-

 

-2-2-2------|--------------|3--0-------0-3-|2-0-----

-0-0-0------|----------0-0-|--------4------|----3-3-

-2-2-2--0---|--------------|---------------|--------

-1-1-1-----4|-----0--1-----|---------------|0-----0-

-2-2-2------|2--4----------|---------------|--------

------------|--------------|0-----0--------|--------

 

0---------------|------------|-------|0-------0-2-

--------------0-|-----------0|1--0---|--3-1-3-----

-0--2----0-2----|-----0--2---|-----2-|----------3-

----------------|------------|-------|------------

3------3--------|------------|0-----0|3-----3-----

----------------|3-3---------|-------|----------2-

 

2---------------|--2--2--2-----|-----------|---------

----------------|--0--0--0-----|---0-------|---1-0---

3---------------|--2--2--2--0--|--------0--|-------2-

-4-4-4-4-4-4-4-4|--1--1--1----4|2---------2|-4---0---

----------------|--2--2--2-----|-----------|---------

2---------------|--------------|0-----0----|---------

 

-----------------------|-0--3---2-----0-|---------

--------------0--0-1-3-|-----------4----|------3-4

--0--2--0--2-----------|----------------|---------

-----------------------|----------------|---------

-----------------------|-3------2-------|---------

--2-----------3--------|--------------0-|0-0-0----

 

--0--------------------------|

-----0--1-------0------------|

------------2-----------0----|

--------------------4------2-|

-----------------------------|

--0-------------0------------|

Sami K. Jebril

amaaaaaaaaaaaaazing , thank you :D

Sami K. Jebril

ممكن تكون الاكوردات اوضح انو تكون مثل Am ,Em

اكتب تعليق

.الرجاء تسجيل الدخول لتكتب تعليقا