المعلم

أضيف في: 2015/08/21
, عدد المشاهدات : 3433 , لا يوجد تعليقات

عضو بلاتيني
Safé Minoz
<< قيم هذه المشاركة 
0 تقييم, معدل: 0.00 من 50 تقييم, معدل: 0.00 من 50 تقييم, معدل: 0.00 من 50 تقييم, معدل: 0.00 من 50 تقييم, معدل: 0.00 من 5
x0

e|--15-15-16-13--13-15-16-13-15--

B|--------------15---------------

G|-------------------------------

D|-------------------------------          INTRO: X2

A|-------------------------------

E|-------------------------------

 

e|--4-1-3-3---1-3-4-1-3-3-4-1-3-3---1-3-4-1-3-3--------

B|----------3---------------------3--------------------

G|-----------------------------------------------------

D|-----------------------------------------------------

A|------------------------------------------------------

E|-------------------------------------------------------

 

e|--3-4-6-8-8-6--6-8-10-6-4-3--------

B|-----------------------------------

G|-----------------------------------    X2

D|-----------------------------------

A|-----------------------------------

E|-----------------------------------

 

e|--11-11-11-11-13-11-10--11-11-11-11-13-11-10--

B|----------------------------------------------

G|----------------------------------------------

D|----------------------------------------------

A|----------------------------------------------

E|----------------------------------------------

 

e|--10-10-8-8-6-6-4-4-8-6-4-3----------

B|-------------------------------------

G|-------------------------------------   X2

D|-------------------------------------

A|-------------------------------------

E|-------------------------------------

 

e|--10-10-8-8-6-6-4-4-------------------------------

B|--------------------1-------------------------------

G|----------------------3-1-0---------------------------

D|-----------------------------------------------------

A|------------------------------------------------------

E|--------------------------3----------------------------

 
اكتب تعليق

.الرجاء تسجيل الدخول لتكتب تعليقا