المدمر

أضيف في: 2015/01/26
, عدد المشاهدات : 4429 , لا يوجد تعليقات

عضو برونزي
Ahmed Reda
<< قيم هذه المشاركة 
0 تقييم, معدل: 0.00 من 50 تقييم, معدل: 0.00 من 50 تقييم, معدل: 0.00 من 50 تقييم, معدل: 0.00 من 50 تقييم, معدل: 0.00 من 5
x0

Terminator Main Theme

Tuning : Standard
E,B,G,D,A,E
Song


Lead Guitar

E|------0-----1-------0---------------------------------------------------|
B|--3--------------------------1-------------------------------------------|
G|--------------------------------------------------------------------------|
D|-------------------------------------3------------------------------------|
A|---------------------------------------------------------------------------|
E|---------------------------------------------------------------------------|

E|-------0----1-----0--------------5---------3----------------------------|
B|---3----------------------1-----------------------------------------------|
G|---------------------------------------------------------------------------|
D|---------------------------------------------------------------------------|
A|---------------------------------------------------------------------------|
E|---------------------------------------------------------------------------|

E|------0-----1-------0---------------------------------------------------|
B|--3--------------------------1-------------------------------------------|
G|--------------------------------------------------------------------------|
D|-------------------------------------3------------------------------------|
A|---------------------------------------------------------------------------|
E|---------------------------------------------------------------------------|

E|-------0----1-----0--------------5---------3----------------------------|
B|---3----------------------1-----------------------------------------------|
G|---------------------------------------------------------------------------|
D|---------------------------------------------------------------------------|
A|---------------------------------------------------------------------------|
E|---------------------------------------------------------------------------|

E|------0-----1-------0----------------------------------------------------|
B|--3--------------------------1--------------------------------------------|
G|------------------------------------0-------------------------------------|
D|------------------------------------------3---------0-------3----2------|
A|---------------------------------------------------------------------------|
E|---------------------------------------------------------------------------|


Bass Guitar
Standard Tuning

G|---------------------------------------------------------------------------|
D|---------------------------------------------------------------------------|
A|---------------------------------------------------------------------------|
E|----3--3-----3----3--3------------------3--3-----3----3--3----------|

G|---------------------------------------------------------------------------|
D|---------------------------------------------------------------------------|
A|---------------------------------------------------------------------------|
E|-----------3--3-----3----3--3------------3--3-----3----3--3---------|

G|---------------------------------------------------------------------------|
D|---------------------------------------------------------------------------|
A|---------------------------------------------------------------------------|
E|-----------3--3-----3----3--3------------3--3-----3----3--3---------|

G|---------------------------------------------------------------------------|
D|---------------------------------------------------------------------------|
A|---------------------------------------------------------------------------|
E|-----------3--3-----3----3--3------------3--3-----3----3--3---------|

G|---------------------------------------------------------------------------|
D|---------------------------------------------------------------------------|
A|-----------1--1-----1---1--1------------1-1------1----1--1----------|
E|---------------------------------------------------------------------------|

G|---------------------------------------------------------------------------|
D|---------------------------------------------------------------------------|
A|-----------1--1-----1---1--1------------1-1------1----1--1----------|
E|---------------------------------------------------------------------------|

G|---------------------------------------------------------------------------|
D|---------------------------------------------------------------------------|
A|-----------8--8-----8---8--8------------8-8------8----8--8----------|
E|---------------------------------------------------------------------------|

G|---------------------------------------------------------------------------|
D|---------------------------------------------------------------------------|
A|-----------8--8-----8---8--8------------8-8------8----8--8----------|
E|---------------------------------------------------------------------------|

G|---------------------------------------------------------------------------|
D|---------------------------------------------------------------------------|
A|-----------6--6-----6---6--6------------6-6------6----6--6----------|
E|---------------------------------------------------------------------------|

G|---------------------------------------------------------------------------|
D|-----------3--3-----3----3--3------------3--3-----3----3--3---------|
A|---------------------------------------------------------------------------|
E|---------------------------------------------------------------------------|

G|---------------------------------------------------------------------------|
D|---------------------------------------------------------------------------|
A|-----------6--6-----6---6--6------------6-6------6----6--6----------|
E|---------------------------------------------------------------------------|

G|---------------------------------------------------------------------------|
D|---------------------------------------------------------------------------|
A|---------------------------------------------------------------------------|
E|-----------3--3-----3----3--3------------3--3-----3----3--3---------|

G|---------------------------------------------------------------------------|
D|---------------------------------------------------------------------------|
A|---------------------------------------------------------------------------|
E|-----------3--3-----3----3--3------------3--3-----3----3--3---------|

Rhythm Guitar

E|---------------------------------------------------------------------------|
B|---------------------------------------------------------------------------|
G|---------------------------------------------------------------------------|
D|---------------------------------------------------------------------------|
A|---------------------------------------------------------------------------|
E|----0-0----0---0--0--------------------0-0----0---0--0--------------|

E|---------------------------------------------------------------------------|
B|---------------------------------------------------------------------------|
G|---------------------------------------------------------------------------|
D|---------------------------------------------------------------------------|
A|---------------------------------------------------------------------------|
E|-----0-0----0---0--0--------------------0-0----0---0--0-------------|

E|---------------------------------------------------------------------------|
B|---------------------------------------------------------------------------|
G|---------------------------------------------------------------------------|
D|---------------------------------------------------------------------------|
A|---------------------------------------------------------------------------|
E|----0-0----0---0--0--------------------0-0----0---0--0--------------|

E|---------------------------------------------------------------------------|
B|---------------------------------------------------------------------------|
G|---------------------------------------------------------------------------|
D|---------------------------------------------------------------------------|
A|---------------------------------------------------------------------------|
E|----0-0----0---0--0--------------------0-0----0---0--0--------------|


<------ Let Ring------------------------------------------------------>
E|---------------------------------------------------------------------------|
B|---------------------------------------------------------------------------|
G|-------7------------------------------------------------------------------|
D|-------7------------------------------------------------------------------|
A|-------5------------------------------------------------------------------|
E|---------------------------------------------------------------------------|

<------ Let Ring------------------------------------------------------>
E|---------------------------------------------------------------------------|
B|---------------------------------------------------------------------------|
G|---------------------------------------------------------------------------|
D|-------3-------------------------------------------------------------------|
A|-------3-------------------------------------------------------------------|
E|-------1-------------------------------------------------------------------|

<------ Let Ring------------------------------------------------------>
E|---------------------------------------------------------------------------|
B|---------------------------------------------------------------------------|
G|-------7------------------------------------------------------------------|
D|-------7------------------------------------------------------------------|
A|-------5------------------------------------------------------------------|
E|---------------------------------------------------------------------------|

<------ Let Ring------------------------------------------------------>
E|---------------------------------------------------------------------------|
B|---------------------------------------------------------------------------|
G|--------5-----------------------------------------------------------------|
D|--------5-----------------------------------------------------------------|
A|--------3-----------------------------------------------------------------|
E|---------------------------------------------------------------------------|

<------ Let Ring------------------------------------------------------>
E|---------------------------------------------------------------------------|
B|---------------------------------------------------------------------------|
G|---------------------------------------------------------------------------|
D|-------3-------------------------------------------------------------------|
A|-------3-------------------------------------------------------------------|
E|-------1-------------------------------------------------------------------|

<------ Let Ring------------------------------------------------------>
E|---------------------------------------------------------------------------|
B|---------------------------------------------------------------------------|
G|--------5-----------------------------------------------------------------|
D|--------5-----------------------------------------------------------------|
A|--------3-----------------------------------------------------------------|
E|---------------------------------------------------------------------------|

<------ Let Ring------------------------------------------------------>
E|---------------------------------------------------------------------------|
B|---------------------------------------------------------------------------|
G|---------------------------------------------------------------------------|
D|-------3-------------------------------------------------------------------|
A|-------3-------------------------------------------------------------------|
E|-------1-------------------------------------------------------------------|

<------ Let Ring------------------------------------------------------>
E|---------------------------------------------------------------------------|
B|---------------------------------------------------------------------------|
G|--------5-----------------------------------------------------------------|
D|--------5-----------------------------------------------------------------|
A|--------3-----------------------------------------------------------------|
E|---------------------------------------------------------------------------|

اكتب تعليق

.الرجاء تسجيل الدخول لتكتب تعليقا