ليه بيفكروني

أضيف في: 2015/12/13
, عدد المشاهدات : 3354 , تعليق واحد

مبتدئ
Mohammed Sallam
<< قيم هذه المشاركة 
0 تقييم, معدل: 0.00 من 50 تقييم, معدل: 0.00 من 50 تقييم, معدل: 0.00 من 50 تقييم, معدل: 0.00 من 50 تقييم, معدل: 0.00 من 5
x0

it's my first note.. hope to be close

capo 7 is needed
lih byfakaroni: am am g e
w di 7kayat   : am dm g e
ya wily       : dm am c (f)e

intro
-----0-0h1----------0-0h1-------------------------------------
--0-1-----3--1-0--0-------3--1-0--0-3-3-1-0---0-1-------------
-2---------------2--------------2------------0----2-----------
--------------------------------------------------------------
--------------------------------------------------------------
--------------------------------------------------------------


lih byfakaroni:
-----------------------------------------------0-0------------
-1--0-0-0-1--1--0-0-0-1--3-0-1-0-1-0-3--3-3-1-3---3-1-0-------
---2-2-2-------2-2-2-----------------------------------2------
--------------------------------------------------------------
--------------------------------------------------------------
--------------------------------------------------------------

w di 7kayat
-----0-0-3-1---0-1-1-5-3--0-1-3-5-7-5--1-1-3-5--3-1-1-0-------
-1-3----------3-----------------------------------------------
--------------------------------------------------------------
--------------------------------------------------------------
--------------------------------------------------------------

ya wily
---1-0-1--0-1-1-1-0----0-0--0-0-0-------------------------
-3-----------------3--1-3--3------3-1--0-3-1-0---1-1-0----
----------------------------------------------2-------2-0-
----------------------------------------------------------
----------------------------------------------------------
----------------------------------------------------------

----------------------
--0-------------------
-2-0--2-0-------------
-----3---3-2----------
----------------------
----------------------
solo:
--0--------0--------------------------------------------------
---3--1-0---3--0----0-1-3--0----1-----------------------------
-2-------2------2-0---------2-0--2----------------------------
--------------------------------------------------------------
--------------------------------------------------------------
--------------------------------------------------------------

Mohammed Sallam

متأكد انها بتاعتك :)

اكتب تعليق

.الرجاء تسجيل الدخول لتكتب تعليقا