ام الجاكيت

أضيف في: 2015/01/22
, عدد المشاهدات : 5992 , 2 تعليقات

عضو ذهبي
Basheer
<< قيم هذه المشاركة 
1 تقييم, معدل: 5.00 من 51 تقييم, معدل: 5.00 من 51 تقييم, معدل: 5.00 من 51 تقييم, معدل: 5.00 من 51 تقييم, معدل: 5.00 من 5
x1

capo on 7th fret


e|---1---1---1-----------------------------|
B|---3---3---3--------1---1---1---1--------|
G|---2---2---2--------2---2---2---2--------|
D|-0---0---0--0-2---3---3---3---3----------|
A|-----------------------------------------|
E|-----------------------------------------|


e|-----------------------------------------|
B|---1---1---1---1-----0---0---1-0---------|
G|---2---2---2---2-----0---0---0-0---------|
D|-2---2---2---2-----2---2---2-------------|
A|-----------------------------------------|
E|-----------------------------------------|

Basheer

thanks ya KinG

Basheer

شكرا كتير
بس سؤال
المقطع الاول ع وتر الري او d
ري ري ري ري مي فا فا فا فا
لسؤال انو الخط الواحد نص زمن ولا ربع؟

اكتب تعليق

.الرجاء تسجيل الدخول لتكتب تعليقا