نسم علينا الهوى ٤

أضيف في: 2015/02/28
, عدد المشاهدات : 11268 , تعليق واحد

مبتدئ
Haifamalek13
<< قيم هذه المشاركة 
2 تقييم, معدل: 4.50 من 52 تقييم, معدل: 4.50 من 52 تقييم, معدل: 4.50 من 52 تقييم, معدل: 4.50 من 52 تقييم, معدل: 4.50 من 5
x2

E|---------------------

B|---------------------

G|--0--2--3--2--2-----X2

D|---------------------

A|---------------------

E|---------------------

 

E|------0---------------------------

B|-1--3---1-----1--3----------1-----

G|-----------3-------3---2--3---3--2

D|----------------------------------

A|----------------------------------

E|----------------------------------

 

E|--------------------------------------

B|--------------------------------------

G|--3--2--0-------------0--2--0---------

D|-----------3--2---3------------3--2--0

A|--------------------------------------

E|--------------------------------------

 

E|----------------------------------------------

B|----------------------------------------------

G|---------0------------------------------------

D|--2--3------3--2--0---------------------------

A|---------------------3--1--0-----3--1--3--1--0

E|-------------------------------0--------------

Haifamalek13

good tabs thank you alot

اكتب تعليق

.الرجاء تسجيل الدخول لتكتب تعليقا