منفى

أضيف في: 2015/11/18
, عدد المشاهدات : 3812 , لا يوجد تعليقات

عضو فضي
Eslam Ahmed II
<< قيم هذه المشاركة 
0 تقييم, معدل: 0.00 من 50 تقييم, معدل: 0.00 من 50 تقييم, معدل: 0.00 من 50 تقييم, معدل: 0.00 من 50 تقييم, معدل: 0.00 من 5
x0

الشاب خالد - منفى
نوته + تاب جيتار | Note + Guitar Pro Tab

50 مازوه
50 Measure

Tempo = 200

Link to Video | لينك الفيديو
https://youtu.be/Fa6imX3G98w

Link to PDF file with notation & tab | لينك PDF

https://goo.gl/4QeqaP


E |-----5h-7-------|--5-------------|----------|----------|-----5h-7-------|
B |--8--------8----|-----6s-5-------|--5-------|--5--5----|--8--------8----|
G |----------------|----------------|-----7----|----------|----------------|
D |----------------|----------------|----------|----------|----------------|
A |----------------|----------------|----------|----------|----------------|
E |----------------|----------------|----------|----------|----------------|


--5-------------|----------|---------|||-------5--5--7-----7-------|
-----6s-5-------|--5-------|--5--5---|||-8-------------------------|
----------------|-----7----|--------o|||o--------------------------|
----------------|----------|--------o|||o--------------------------|
----------------|----------|---------|||---------------------------|
----------------|----------|---------|||---------------------------|


--7-----7h-5----------------|--5--7----------|--5h-7h-5-------|-----5s-7-------|
--------------8-------------|--------8-------|----------------|--8--------8----|
----------------------------|----------------|----------------|----------------|
----------------------------|----------------|----------------|----------------|
----------------------------|----------------|----------------|----------------|
----------------------------|----------------|----------------|----------------|


--5-------------|----------|---------|||-7--7--7--7----|--7--7h-10h7----|
-----6--5-------|--5-------|--5--5---|||---------------|----------------|
----------------|-----7----|--------o|||o--------------|----------------|
----------------|----------|--------o|||o--------------|----------------|
----------------|----------|---------|||---------------|----------------|
----------------|----------|---------|||---------------|----------------|


--7-------|--7--5--5-------|-----5s-7-------|--5-------------|----------|
-----8----|----------------|--8--------8----|-----6--5-------|--5-------|
----------|----------------|----------------|----------------|-----7----|
----------|----------------|----------------|----------------|----------|
----------|----------------|----------------|----------------|----------|
----------|----------------|----------------|----------------|----------|


---------|||-5--5--5--5----|--5-----7h-5----|--5-------|--7s-5--5-------|
--5--5---|||---------------|-----8----------|-----8----|----------------|
--------o|||o--------------|----------------|----------|----------------|
--------o|||o--------------|----------------|----------|----------------|
---------|||---------------|----------------|----------|----------------|
---------|||---------------|----------------|----------|----------------|


-----5s-7-------|--5-------------|----------|---------||-----5s-7-------|
--8--------8----|-----6--5-------|--5-------|--5--5---||--8--------8----|
----------------|----------------|-----7----|--------o||----------------|
----------------|----------------|----------|--------o||----------------|
----------------|----------------|----------|---------||----------------|
----------------|----------------|----------|---------||----------------|


--5-------------|----------|----------|-----5s-7-------|--5-------------|
-----6--5-------|--5-------|--5--5----|--8--------8----|-----6--5-------|
----------------|-----7----|----------|----------------|----------------|
----------------|----------|----------|----------------|----------------|
----------------|----------|----------|----------------|----------------|
----------------|----------|----------|----------------|----------------|


----------|----------|-----5--7-------|--5-------------|----------|----------||
--5-------|--5--5----|--8--------8----|-----6--5-------|--5-------|--5--5----||
-----7----|----------|----------------|----------------|-----7----|----------||
----------|----------|----------------|----------------|----------|----------||
----------|----------|----------------|----------------|----------|----------||
----------|----------|----------------|----------------|----------|----------||

 

 

Written By Eslam Ahmed
https://www.facebook.com/Eslam.A7med2

برجاء الاشتراء بالقناه

وترك التعليقات لاقتراحاتكم وطلبات الاغانى الجديده

 

يمكنك ايضا تحميل ملف جيتار برو من هنا


تحميل ملف جيتار برو: منفى


اكتب تعليق

.الرجاء تسجيل الدخول لتكتب تعليقا