و لما تلاقينا

أضيف في: 2015/09/21
, عدد المشاهدات : 12939 , 5 تعليقات

عضو فضي
wallaa
<< قيم هذه المشاركة 
2 تقييم, معدل: 5.00 من 52 تقييم, معدل: 5.00 من 52 تقييم, معدل: 5.00 من 52 تقييم, معدل: 5.00 من 52 تقييم, معدل: 5.00 من 5
x2

لما تلاقينا

 

guitar tuning : D# standard

D# . A# . F# . C# . G# . D# 

No capo ^_^

chords:

Am    x02210

E7    020100

C6    032210

Dm    xx0230

Amaj7 x00210

 

Intro:

     Am

D#--------------------------------------------

A#-----------2-------------------2------------

F#--------2------2-----------2-------2--------

C#------2-----------2-----2------------2------

G#---0-----------------0----------------------

D#--------------------------------------------

 

     E7  

D#---------------------------------------------

A#------------0--------------------0-----------

F#-------1---------1------------1--------1-----

C#-----0--------------0-------0------------0---

G#--2----------------------2-------------------

D#---------------------------------------------

     C6

D#---------------------------------------------

A#-------------1---------------------1---------

F#---------2------2---------------2-----2------

C#------2-----------2----------2----------2----

G#---3----------------------3------------------

D#---------------------------------------------

 

     Dm                   Amaj7

D#------------0--------------------------0-----

A#---------0-----0------------------0----------

F#------2-----------2-----------1--------------

C#---0---------------------2-------------------

G#---------------------------------------------

D#---------------------------------------------

                                                 x4




                                                   E7           Am 

ولما تلاقينا على سفح رامة

             Amaj7    Dm                 C6 

وجدت بنان العامرية أحمرا

E7           Am 
فقلت خضبت الكف على فراقنا

Amaj7 Dm               C6 
قالت معاذ الله ذلك ما جرى


E7       Am 
ولكنني لما وجدتك راحلا

Amaj7 Dm                  C6 
بكيت دما حتى بللت به الثرى
 E7           Am
مسحت بأطراف البنان مدامعي

Amaj7  Dm                   C6
فصار خضابا في اليدين كما ترى

E7          Am
ولما تلاقينا على سفح رامة

Amaj7 Dm                 C6
وجدت بنان العامرية أحمرا
E6             Am
فقلت خضبت الكف على فراقنا

Amaj7  Dm               C6

قالت معاذ الله ذلك ما جرى

Am .. E7 .. C6 .. Dm .. Amaj7 ...........

 

wallaa

انا عايز اعرف الرتم

wallaa

ممكن الرتم لوسمحت

wallaa

ويعطيك العافية

wallaa

الرتم DUUDx2 في chord ال Am و E7 و C6 , في اخر2 cords اللي هما : Dm , Amaj DU7UDx1

wallaa

و سرعة 133

اكتب تعليق

.الرجاء تسجيل الدخول لتكتب تعليقا