تدور وترجع

أضيف في: 2015/09/08
, عدد المشاهدات : 3256 , لا يوجد تعليقات

عضو فضي
wallaa
<< قيم هذه المشاركة 
0 تقييم, معدل: 0.00 من 50 تقييم, معدل: 0.00 من 50 تقييم, معدل: 0.00 من 50 تقييم, معدل: 0.00 من 50 تقييم, معدل: 0.00 من 5
x0

capo 2

tuning : E B G D A E .


intro :

E---------0------------------0---------------
B------------0-----------------0-------------
G--------------2--0h2p0-----------2--0h2-----
D--------------------------------------------
A--------------------------------------------
E--------------------------- ----------------

                                              x2

Am

E----0-----------------
B-------1--------------
G-----------2----------
D--------------2-------
A-----------------0----
E----------------------

 

G          Am

تدور وترجع وجع واعتكاف

G          Am

وتطبق عليك السنين العجاف

x2                           

Am                Dm

وأول ما حبك يقابلك يسيبك

Em     G         Dm

واول ماحبك يسيبك تخاف

 

E-------0----0--1--0-----------------------------------------
B---------3-----------3--1--0------0--1--0------0-------0----
G-------------------------------2----------2--0----2--0----2-
D------------------------------------------------------------
A------------------------------------------------------------
E------------------------------------------------------------

 

E------------------------------------------------------------
B---------------0--------------------------------------------
G---0--------------2----0------------------------------------
D------3--2--0--------------3--2--3--------------------------
A------------------------------------------------------------
E------------------------------------------------------------

 


        Am

E-------0-----------
B---------1---------
G-----------2-------
D-------------2-----
A---------------0---
E-------------------

 

 

G            Am

صنعت سجنك من الهوا ودخلتة بأرادتك

G               Am 

وأديت حبيبك نفسك ما سألت فين حط

X2                                 

Am              Dm

وأكمن كلة أذااك قررت تعشق ملاك

Em          G               Dm

ياللى عشقت الملاك حتى الملاك صدك

Am   G   Dm   G   Am   G   Am

ااااااااااااااااااااااااااااااه

 

اكتب تعليق

.الرجاء تسجيل الدخول لتكتب تعليقا