الف ليلة و ليلة ٢

أضيف في: 2014/04/12
, عدد المشاهدات : 6331 , لا يوجد تعليقات

مبتدئ
kamin
<< قيم هذه المشاركة 
2 تقييم, معدل: 2.00 من 52 تقييم, معدل: 2.00 من 52 تقييم, معدل: 2.00 من 52 تقييم, معدل: 2.00 من 52 تقييم, معدل: 2.00 من 5
x2

Hello Guys,

This is my first tab on here. It is Alf Leila W Leila by UM Kolthoum. I will upload the second part based on your comments and ratings if you like it, and will have a video uploaded for me playing this song to make it easier. 

Good Luck!! & Enjoy it!!

People call it Music, I call it MAGIC!


E ----------------------------------------------------------------1----------------------------------3---------

B -----------1------------------------1-----------------------------4--4-3---3-1---1-------------------4-6-4-3-

G -------------2-3-2-0----------------2-3-2P0-0-------------------------------------3-3------------------------

D -------------------------------------------------------------------------------------------------------------

A -------------------------------------------------------------------------------------------------------------

E --3-3-3------------------3-3-3---------------------3-3-3----------------------------------3-3-3--------------

 

E ---------5--------3-----------3-3-333-3-333---3-1---1--------------------------------------------------------

B ------------6-6-----4-3-------------------------------------4---4-3---3-1---1--------------------------------

G ------------------------------------------------------------------------------------3--3-2---2-0-0-----------

D -------------------------------------------------------------------------------------------------------------

A -------------------------------------------------------------------------------------------------------------

E -3-3-3-------------------------------------------------------------------------------------------------------

 

E -------------------------------------------------------------------------------------------------------------

B ---------3-1-3—3~----1-3-1------------1-3P1----1-------------1--------------3~-------------------------------

G -0-2-3--------------------------3-2-3--------3--3-2-0-2-3-----2-3-2-0-2-------0------------------------------

D -------------------------------------------------------------------------------------------------------------

A -------------------------------------------------------------------------------------------------------------

E -------------------------------------------------------------------------------------------------------------

 

E -3-3-3--5-3----------1-1-1--3-1--------------------------1~--------------------------------------------------

B ---------------6-4-3----------------4-3-1----------4-4-4----3-3-3—4~---------1-3-1---------------------------

G -------------------------------------------------------------------------2-3---------3-2-0-------------------

D -------------------------------------------------------------------------------------------------------------

A -------------------------------------------------------------------------------------------------------------

E -------------------------------------------------------------------------------------------------------------


E -------------------------------------------------------------------------------------------------------------

B -------------------------------------------------------------------------------------------------------------

G -------------------------------------------------------------------------------------------------------------

D -------------------------------------------------------------------------------------------------------------

A ---5-5----5-------5-5----5-----------------3-----5-3---3---------------------3-------------------------------

E -3------3-------3------3------------3-5-6---6~----------6----6-5--3-5-6~------6---6-5---5-3---6-3------------


E -------------------------------------------------------------------------------------------------------------

B -------------------------------------------------------------------------------------------------------------

G -------5---7-5---5-------------------5---------------------------7-8-7P5---7-8-7P5—5~-----5----6P5-----------

D -5-7-8--8~--------8--8-7----5-7-8~-----8---8-7---7-5----8-5~-----------------------------8---8--------8P7----

A -------------------------------------------------------------------------------------------------------------

E -------------------------------------------------------------------------------------------------------------


E ---------------------------3-------------------------------3-5-3~--------1/3---------------------------------

B -----------------------------6-4-3~---3--3-3H4--4-4H6--6-6-------------------6-4—6P4P3---3--3-3H4--4-4H6--6-6

G ------5------------------------------------------------------------------------------------------------------

D -7-8---8--7-5-8-5~-------------------------------------------------------------------------------------------

A -------------------------------------------------------------------------------------------------------------

E -------------------------------------------------------------------------------------------------------------

 

E -3-5-3~------------------------------------------------------------------------------------------------------

B ------------3P4--3-1----------------1------------------------------------------------------------------------

G ------------------------3-2-0---2-3---3-2-0----0-2~----------------------------------------------------------

D ---------------------------------------------4----------------------------------------------------------

A -------------------------------------------------------------------------------------------------------------

E -------------------------------------------------------------------------------------------------------------


 

E --------------------------------------------------------

B -------1-----3-1---1-----------------1-------------3----

G -0-2-3--3~----------3--3-2---0-2-3----3--3-2---2-0---0--

D --------------------------------------------------------

A --------------------------------------------------------

E --------------------------------------------------------


 

E --------------------------------------------------------

B -3-4-3P1--3-4-3P1--1~---1--2P1---------1----------------

G -----------------------3-3-----3P2--2-3-3--2-0-3-0~-----

D --------------------------------------------------------

A --------------------------------------------------------

E --------------------------------------------------------


E --------------------------------------------------------(x2)

B -----1--3-1--1-----------------1--3-1---1---------------

G -2-3-------3--3--2-3-2-3----2-3------3---3-2~-----------

D --------------------------------------------------------

A --------------------------------------------------------

E --------------------------------------------------------

 

E ----1--3-1--1----------------1--3-1--1------------------(X2)

B -3-4------4--4--3-4-3-4---3-4------4--4-3~--------------

G --------------------------------------------------------

D --------------------------------------------------------

A --------------------------------------------------------

E --------------------------------------------------------

 

E -3-3-333-3-333--3-1-1-----------------------------------(X2)

B ---------------------4-4-3-3-1-1------------------------

G --------------------------------3-3-2-2-0-0-------------

D --------------------------------------------------------

A --------------------------------------------------------

E --------------------------------------------------------

Solo will be added soon.

 

اكتب تعليق

.الرجاء تسجيل الدخول لتكتب تعليقا