اكثر ٢

أضيف في: 2014/05/24
, عدد المشاهدات : 5919 , لا يوجد تعليقات

عضو بلاتيني
Rivol
<< قيم هذه المشاركة 
0 تقييم, معدل: 0.00 من 50 تقييم, معدل: 0.00 من 50 تقييم, معدل: 0.00 من 50 تقييم, معدل: 0.00 من 50 تقييم, معدل: 0.00 من 5
x0

The Intro 

1/--7------5--8-7-5-7p5---------------------------------------

2/---10---5------------8--88--6-5-8-6--66-5------------7/8-5--

3/------------------------------------------7-5-4--4-7--------

 

1/--7--77--77--77-8--10-10/12-7--77-5-3-7-5--55-7-8-8/10-5--

2/----------------------------------------------------------

3/----------------------------------------------------------

 

1/ 5-5--3-1-5-3-1--0--------------------------------------

2/--------------------------------------------------------

3/--------------------------------------------------------

 

Chords : Am - EM - DM - G

 

اكتب تعليق

.الرجاء تسجيل الدخول لتكتب تعليقا