أهواك ٢

أضيف في: 2014/03/11
, عدد المشاهدات : 23477 , 3 تعليقات

عضو ذهبي
HishamSayed
<< قيم هذه المشاركة 
3 تقييم, معدل: 3.67 من 53 تقييم, معدل: 3.67 من 53 تقييم, معدل: 3.67 من 53 تقييم, معدل: 3.67 من 53 تقييم, معدل: 3.67 من 5
x3

Chords ---> E--->B--->A---->E All major.

E|---0-0-2-0-2-0-------------------------------------|
B|-0-------------4-4-5-4-5-4-2-2-4-2-4-2-------------|
G|----------------------------------------4-2-1-2-1--|
D|---------------------------------------------------|
A|---------------------------------------------------|
E|---------------------------------------------------|

 

 

E|---0-0-2-4-------------------|
B|-0---------5-4---2-2-4-5-2-0-|
G|---------------1-------------|
D|-----------------------------|
A|-----------------------------|
E|-----------------------------|
 

 

E|--------------------------------------------|
B|---0-2-4-5-7-9-7-5-7-5-4-5-4-2-1-4-2--------|
G|-1-----------------------------------4-2-1--|
D|--------------------------------------------|
A|--------------------------------------------|
E|--------------------------------------------|

 

HishamSayed

| ------------------------------------------0------------------------------------------------------------------------------------|
| ------0h1-1-1-1--3P1-1--3P1-1- 0-------------------------------------|
|------------------------------------------1------------------------------------|
|-2-2------------------------------------ 2------------------------------------|
|------------------------------------------2-------------------------------------|
|------------------------------------------0--------------------------------------|

HishamSayed

please the chords not the tabs

HishamSayed

E 1/8- - - 8-10-8--10-8-7~~~----7-8-7--8-7-5~~~~~---5-7-5--7-5-3~~~-3P1P0-- 3P1P0

B

G

D

A

E

E 1/8~~--8-10-12~~~-8-7~~--0-5~~--5-7-8-7-5~~--0-3~~--3-5-7-8-10-12~~-10-8-10--8-7-8- 7/5-5/3-5/7~~-5/3-3/1-1P0

B

G

D

A

E

اكتب تعليق

.الرجاء تسجيل الدخول لتكتب تعليقا