لونجا فرحفزا

أضيف في: 2014/10/31
, عدد المشاهدات : 2437 , لا يوجد تعليقات

عضو ذهبي
Basheer
<< قيم هذه المشاركة 
1 تقييم, معدل: 5.00 من 51 تقييم, معدل: 5.00 من 51 تقييم, معدل: 5.00 من 51 تقييم, معدل: 5.00 من 51 تقييم, معدل: 5.00 من 5
x1


Intro:

e-|-------------------------------------------------------
B-|-3-----------3-0-3-------------------------------------
G-|---3-0---0-3-------5-4-4-5--5-5-2--2---2--5-5-3--3-2-3-
D-|-------0-----------------------------4-----------------
A-|-------------------------------------------------------
E-|-------------------------------------------------------


e-|-------------------------------------------------------
B-|-------------------1-3-4-6-4-3-------------------------
G-|---------0-0-2-3-3-------------5-5-3-2-----------------
D-|-0-1-1-4-------------------------------4--4-1-0--------
A-|-------------------------------------------------------
E-|-------------------------------------------------------

Verse:

e-|-------------------------------------------------------
B-|-------------------------3----3-4-3--------3---3-4-3---
G-|-------0--------0----3-5---5--------5--3-5---5-------5-
D-|-----0--------0----------------------------------------
A-|---1--------1------------------------------------------
E-|-3--------3--------------------------------------------


e-|---3-1-1-----------------------------------------------
B-|---------4-4-3-3-1-1------------------1----------------
G-|-5-------------------3-3-2-2-0-0--2-3---3-3-2-3-2-3-2-0
D-|-------------------------------------------------------
A-|-------------------------------------------------------
E-|-------------------------------------------------------


e-|-------------------------------------------------------
B-|-----1-----------------------1-4-3-1-------------------
G-|-2-3---3-3-2-3-2-3-2-0---2-3---------3-2-0-------------
D-|---------------------------------------------0-1-0-----
A-|-------------------------------------------------------
E-|-------------------------------------------------------


e-|-------------------------------------------------------
B-|-------------------------3----3-4-3--------3---3-4-3---
G-|---------------------3-5---5--------5--3-5---5-------5-
D-|-------------------------------------------------------
A-|-------------------------------------------------------
E-|-------------------------------------------------------


e-|---3-1-1-----------------------------------------------
B-|---------4-4-3-3-1-1------------------1----------------
G-|-5-------------------3-3-2-2-0-0--2-3---3-3-2-3-2-3-2-0
D-|-------------------------------------------------------
A-|-------------------------------------------------------
E-|-------------------------------------------------------


e-|-------------------------------------------------------
B-|-----1-----------------------1-4-3-1-------------------
G-|-2-3---3-3-2-3-2-3-2-0---2-3---------3-2-0-----0-------
D-|---------------------------------------------0---------
A-|-------------------------------------------------------
E-|-------------------------------------------------------


Part 1: (X2)

e-|-------------------------------------------------------
B-|-------1-----------------------------------------------
G-|-0-2-3---3-2-0-2-2------------------0-2-3-2-0-2-2------
D-|-------------------0-1-0---0-1-0------------------0-1-0
A-|-------------------------3-----------------------------
E-|-------------------------------------------------------


e-|-------------------------------------------------------
B-|-------------------1-----1-1---3-3---------------------
G-|-----------0-2-3-2---3-0-----0-------3-3-----2-3-2-0---
D-|---0-1-0---------------------------3-----------------4-
A-|-3-----------------------------------------------------
E-|-------------------------------------------------------


e-|-------------------------------------------------------
B-|-------------------------------------------------------
G-|-0-----------------------------------------------------
D-|---4-1-0-1-0-------------------------------------------
A-|-------------3-1-3-1-0---------------------------------
E-|-----------------------3--------------------------------

(Verse)

Part 2: (X2)

e-|-------------------------------------------------------
B-|-1-h3---1-h3-1-h3-3-p1-----3-3-2--------------------0--
G-|-----------------------3---------3-3-2-0-3-2-0-3--1----
D-|-------------------------------------------------------
A-|-------------------------------------------------------
E-|-------------------------------------------------------


e-|-------------------------------------------------------
B-|-3-4-6-6-6--1-3-4-4-4----1-3-3-4-3-1-------------------
G-|-----------------------3-------------3-2-0-------------
D-|-------------------------------------------------------
A-|-------------------------------------------------------
E-|-------------------------------------------------------

(Verse)

Part 3:

e-|-------------------------3-1----------------------------
B-|---------------------3-3-----4-3-1-------1--------------
G-|---0-0-0-3-3-0-3-3-3---------------3-2-0---3-2-0-3-1-0--
D-|-0-----------------------------------------------------3
A-|--------------------------------------------------------
E-|--------------------------------------------------------


e-|-------------------------3-1----------------------------
B-|---------------------3-3-----4-3-1-------1--------------
G-|---0-0-0-3-3-0-3-3-3---------------3-2-0---3-2-0-3-1-0--
D-|-0-----------------------------------------------------3
A-|--------------------------------------------------------
E-|--------------------------------------------------------


e-|-------------------------3-1----------------------------
B-|---------------------3-3-----4-3-1-------1--------------
G-|---0-0-0-3-3-0-3-3-3---------------3-2-0---3-2-0---2-0--
D-|-0-----------------------------------------------3------
A-|--------------------------------------------------------
E-|--------------------------------------------------------

Finish:

e-|--------------------------------------------------------
B-|--------------------------------------------------------
G-|-0---0--------------------------------------------------
D-|---0----------------------------------------------------
A-|--------------------------------------------------------
E-|--------------------------------------------------------

اكتب تعليق

.الرجاء تسجيل الدخول لتكتب تعليقا