الف ليله وليلة

أضيف في: 2013/06/19
, عدد المشاهدات : 23547 , 7 تعليقات

مبتدئ
Ahmed-sherif
<< قيم هذه المشاركة 
7 تقييم, معدل: 5.00 من 57 تقييم, معدل: 5.00 من 57 تقييم, معدل: 5.00 من 57 تقييم, معدل: 5.00 من 57 تقييم, معدل: 5.00 من 5
x7

hey guys this is my first tab here i love this song i hope you like it iam waiting for your comments

 

E:-------------------------------------------------------------

B:-------------------------------------------------------------

G:-------------------------------------------------------------

D:-------------------------------------------------------------

A:--------------3-0--1--0----------------3--0--1--0------------

E:---3--3--3---------------3------3-3-3--------------3---------

 

E:-------------------------------------------------------------

B:-------------------------------------------------------------

G:-------------------------------------------------------------

D:-----------3--1-1--0-0---------------------------------------

A:------------------------3-3--1-1----------3--1-1--0-0--------

E:---3-3-3---------------------------3-3-3--------------3-3-1-1

 

E:-------------------------------------------------------------

B:-------------------------------------------------------------

G:------------0---------------------2-----0--------------------

D:---------------1--3--1--0------------3-----1--0--------------

A:-------------------------------------------------------------

E:----3-3-3------------------3-3-3-----------------------------

 

E:-------------------------------------------------------------

B:-------------------------------------------------------------

G:-0-0-0-0-0-0-0-0-0-0-0-0----0--------------------------------

D:-------------------------------3-3--1-1--0-0-----------------

A:----------------------------------------------3-3-1-1-0-0----

E:----------------------------------------------------------3-3

 

E:-------------------------------------------------------------

B:-------------------------------------------------------------

G:-------------------------------------------------------------

D:---------0--0-0-----0------------0--------------------------0

A:-----0-1---3------3-----3-1-0-1-3----1-3-1-0---0-1-3-0-1-0-0-

E:-3-3------------------------------------------3-----------3--

Ahmed-sherif

CAN YOU PLEASE MAKE MORE JUST LIKE THIS!!!!! This is perfect!!! I love finger picking songs like this one and i love old songs...Can you do more like this for Elissa, Amr Diab, Assi Hellani, Fairuz???
Thank you sooooo much :)

Ahmed-sherif

thx bro

Ahmed-sherif

so good man
please the rest

Ahmed-sherif

somebody have the chords ??

Ahmed-sherif

great job!!!

Ahmed-sherif

thx all for your comments

Ahmed-sherif

مشكور يالغالي ماقصرت

اكتب تعليق

.الرجاء تسجيل الدخول لتكتب تعليقا