رقصة ليلى

أضيف في: 2013/02/16
, عدد المشاهدات : 5933 , تعليق واحد

عضو ذهبي
Basheer
<< قيم هذه المشاركة 
3 تقييم, معدل: 5.00 من 53 تقييم, معدل: 5.00 من 53 تقييم, معدل: 5.00 من 53 تقييم, معدل: 5.00 من 53 تقييم, معدل: 5.00 من 5
x3

E|---------------------------------|--------------------------
B|---------------------------------|--------------------------
G|--9-8-9-10-9-8-9----9-8-9-10-9-8-|-------9-8-9-10-9-8-9-----
D|-----------------10--------------|-10-9-----------------10--
A|---------------------------------|--------------------------
E|---------------------------------|--------------------------

 

E|--------------------|------------------------------------|--
B|--------------------|------------------------------------|--
G|--9-8-9-10-9-8------|------------------------------------|--
D|---------------10-9-|-9-7-9-10-9-7-9-6--6-7-9-10-9-7-6-7-|--
A|--------------------|------------------------------------|--
E|--------------------|------------------------------------|--

 

E|--------------------------------------|
B|--------------------------------------|
G|--------------------------------------|
D|---9-7-9-10-9-7-9-6--6-7-9-10-9-7-6-7-|
A|--------------------------------------|
E|--------------------------------------|

 

E|------------------------------------------------------------
B|--10-9---------------10-9----------------12-9---------------
G|-------10-9-7-9-10-9------10-9-7-9-10-9-------10-9-7-9-10-9-
D|------------------------------------------------------------
A|------------------------------------------------------------
E|------------------------------------------------------------

 

E|---------------------|----7-8-10-8-7----7-------------------
B|--10-9---------------|-10------------10---10-9----9---------
G|-------10-9-7-9-10-9-|-------------------------10---10-9-7-9
D|---------------------|--------------------------------------
A|---------------------|--------------------------------------
E|---------------------|--------------------------------------

 

E|------7-8-10-8-7----7---------------------
B|---10------------10---10-9----9-----------
G|----------------------------10---10-9-7-9-
D|------------------------------------------
A|------------------------------------------
E|------------------------------------------

 

 

Basheer

can you tab enni mneeh, please ?

اكتب تعليق

.الرجاء تسجيل الدخول لتكتب تعليقا