رقصة ليلى ٢

أضيف في: 2013/03/08
, عدد المشاهدات : 9480 , 4 تعليقات

مبتدئ
MarcusK
<< قيم هذه المشاركة 
2 تقييم, معدل: 5.00 من 52 تقييم, معدل: 5.00 من 52 تقييم, معدل: 5.00 من 52 تقييم, معدل: 5.00 من 52 تقييم, معدل: 5.00 من 5
x2
**This follows the version on their album. As best I can**
 
Intro (option 1) 
E|-----------------------|-----------------------------------|
B|-----------------------|-----------------------------------|
G|-----------------------|-----------------------------------|
D|--7-7----7-10--------5-|-7-7----10-7-------5-3--3-5-3-5----|
A|--------------7----7---|-------------7--7---------------7--|
E|-----------------------|-----------------------------------|
 
Intro (option 2)
E|-----------------------|-----------------------------------|
B|-----------------------|-----------------------------------|
G|-----------------------|-----------------------------------|
D|--7-7----7-10----------|-7-7--10-7-------------------------|
A|--------------7----7-10|------------7--7-10-8--8-10-8-10-7-|
E|-----------------------|-----------------------------------|
 
E|--------------|
B|--------------|
G|--------------|
D|--10-9-7----7-|
A|-7-------10---|
E|--------------|
 
E|--------------------------------------| x2
B|--------------------------------------|
G|-9-8-9-10--9-8-9----9-8-9-10--9-8-----|
D|----------------10---------------10-9-|
A|--------------------------------------|
E|--------------------------------------|
 
E|----------------------------------------------|
B|----------------------------------------------|
G|----------------------------------------------|
D|-9--7--9-10--9--7--9-6--6--7--9-10--9--7--6-7-|
A|----------------------------------------------|
E|----------------------------------------------|
 
E|-------------------------| x3
B|-10--9-------------------|
G|--------10--9--7--9-10-9-|
D|-------------------------|
A|-------------------------|
E|-------------------------|
 
E|--7----------------------|
B|-----9-------------------|
G|--------10--9--7--9-10-9-|
D|-------------------------|
A|-------------------------|
E|-------------------------|
 
E|-----7--8-10--8--7----7------------------------| 
B|-10-----------------10---10--9----9------------|
G|--------------------------------10---10--9--7-9|
D|-----------------------------------------------|
A|-----------------------------------------------|
E|-----------------------------------------------|
MarcusK

I made an account just to tell you how awesome this is, great job! Really appreciate it.

MarcusK

I've been away from guitar and the site for a long time. To come back and see this here comment makes me feel great.

Thank you for your kind words.

MarcusK

can you tab enni mneeh, please ?

MarcusK

ممكن تابات أكتر لمشروع لليلى لو سمحت؟

اكتب تعليق

.الرجاء تسجيل الدخول لتكتب تعليقا