الحلوة دي ٢

أضيف في: 2013/01/19
, عدد المشاهدات : 22854 , 3 تعليقات

عضو ذهبي
Basheer
<< قيم هذه المشاركة 
4 تقييم, معدل: 4.75 من 54 تقييم, معدل: 4.75 من 54 تقييم, معدل: 4.75 من 54 تقييم, معدل: 4.75 من 54 تقييم, معدل: 4.75 من 5
x4

E|----------------------------------------|-------------------
B|----------------------------------------|---------------5---
G|---2-1-2-4--5-4-2--4-2-1--2-1---2-1-----|-2-1-2-4-4-4-4---4-
D|-2----------------------------3-----3-2-|2------------------
A|----------------------------------------|-------------------
E|----------------------------------------|-------------------

E|---------------|--------------------------------------------
B|---------------|--------------------------------------------
G|-5-4-2-1-2-4-5-|-5-5-4-5--5-4-5--7-5-4--4-2-4--5-4-2--2-1-2-
D|---------------|--------------------------------------------
A|---------------|--------------------------------------------
E|---------------|--------------------------------------------

 

E|------------------------------------------------------------
B|------------------------------------------------------------
G|-4-2-1-1--1-2-1--------1------------------------------------
D|----------------3--2-3---3-2--------------------------------
A|------------------------------------------------------------
E|------------------------------------------------------------

 

E|------------------------------------------------------------
B|------------------------------------------------------------
G|----2-1-2--2-4-2-1---1----1-1-1-1-2-1----------------1-2-1--
D|--2----------------3----2-------------3-2-3--0-3-2-3--------
A|------------------------------------------------------------
E|------------------------------------------------------------

 

E|----------------------------------|-------------------------
B|----------------------------------|-------------------------
G|--------------------1-2-1---------|---4-4-4-2-2-1-2-4-2-4-2-
D|-3-2-3-2-0--0-3-2-3-------3-3-2-2-|-2-----------------------
A|----------------------------------|-------------------------
E|----------------------------------|-------------------------

 

E|---------------------------|--------------------------------
B|---------------------------|--------------------------------
G|-1---4-4-4-2-2-1-2-4-5-4-2-|-2-2-2-2-2-2-2-4-2-1---1--2-1---
D|---2-----------------------|---------------------3--------3-
A|---------------------------|--------------------------------
E|---------------------------|--------------------------------

 
 
E|------------------------------------------------------------
B|------------------------------------------------------------
G|-----1-2-1-1------------------------------------------------
D|-2-3---------3-3-2-2----------------------------------------
A|------------------------------------------------------------
E|------------------------------------------------------------ 
Basheer

great tab ... thank you basheer

Basheer

This is perfect :)

Basheer

great tab than

اكتب تعليق

.الرجاء تسجيل الدخول لتكتب تعليقا