كان عنا طاحون ٣

أضيف في: 2013/05/17
, عدد المشاهدات : 11931 , تعليق واحد

عضو فضي
ameral
<< قيم هذه المشاركة 
1 تقييم, معدل: 5.00 من 51 تقييم, معدل: 5.00 من 51 تقييم, معدل: 5.00 من 51 تقييم, معدل: 5.00 من 51 تقييم, معدل: 5.00 من 5
x1
E|---------------------------|-----------------|---------------------------|------------|
B|---------------------------|-----------------|---------------------------|------------|
G|---------------------------|-----------------|---------------------------|-0----------|
D|---------0---1---0---------|-0--3------------|---------0---1---0---------|------3-----|
A|-3--------------------3----|-------3---3-----|-3--------------------3----|------------|
E|---------------------------|-----------------|---------------------------|------------|


E|------------------------------|------------------------------|--------------------------|
B|------------------------------|------------------------------|--------------------------|
G|---------1---0----------------|---------0--------------------|-----------------0--------|
D|-3---------------3---1---1----|-1-----------3---1---0---0----|-0-------1---3------------|
A|------------------------------|------------------------------|--------------------------|
E|------------------------------|------------------------------|----------------------7---| 


E|-----------------||
B|-----------------||
G|-----------------||
D|-0--1------------||
A|-------3---3-----||
E|-----------------||


Musical Intro: 140 bpm
ameral

wen al kmale ??

اكتب تعليق

.الرجاء تسجيل الدخول لتكتب تعليقا