حلوة يا بلدي ٢

أضيف في: 2013/02/01
, عدد المشاهدات : 40409 , 4 تعليقات

عضو دياموند
wiamrmhanna
<< قيم هذه المشاركة 
7 تقييم, معدل: 4.43 من 57 تقييم, معدل: 4.43 من 57 تقييم, معدل: 4.43 من 57 تقييم, معدل: 4.43 من 57 تقييم, معدل: 4.43 من 5
x7

 

E|-0---0---0-1-----------------0---0---0-1-------0---1-------|

B|---3---3-----3--3-3-1---3------3---3-----3-3-3---3---------|

G|----------------------3------------------------------------|

D|-----------------------------------------------------------|

A|-----------------------------------------------------------|

E|-----------------------------------------------------------|

 

 

E|-0---0-1-3-0-1-3-5-5-3-1-0---0-1-3-3-1-0-------0-1-0---0---|

B|---3-----------------------3-------------3-1-3-------3-----|

G|-----------------------------------------------------------|

D|-----------------------------------------------------------|

A|-----------------------------------------------------------|

E|-----------------------------------------------------------|

 

E|-0--3--5--6--5--6--5--6--10--8--6--5-----------------------|

B|-----------------------------------------------------------|

G|-----------------------------------------------------------|

D|-----------------------------------------------------------|

A|-----------------------------------------------------------|

E|-----------------------------------------------------------|

 

 

G/D: x35543

(Cm > Fm7 > Cm > Fm7)

Cm
كلمه حلوه و كلمتين

Fm7      .
حلوه يا بلدى

Cm
غنوه حلوه و غنوتين

Fm7      .
حلوه يا بلدى


Bb
املى دايما كان يا بلدى

Cm          Eb
انى ارجعلك يا بلدى

Cm       D7         Fm6
وافضل دايما جنبك على طول
Cm
و ذكريات كل اللى فات

Fm7
فاكره يا بلدى

Cm
قلبى مليان بحكايات

Fm7
فاكره يا بلدى

Bb
اول حب كان فى بلدى

Cm          Eb
مش ممكن انساه يا بلدى

 G    Cm       D7       Fm
فين ايام زمان قبل الوداع
Ebmaj7   Bb          Fm7      .
كنا بنقول ان الفراق ده مستحيل

C           G7       Fm Abmaj7
و كل دمعه على الخدين كانت بتسيل

Ebmaj7      Bb7          Fm7      .
مليانه بامل ان احنا نبقى موجودين

G   D  Fm   Abmaj7
فى بحر الحب على الشطين
Cm
كلمه حلوه و كلمتين

Fm7       .
حلوه يا بلدى

Cm 
غنوه حلوه و غنوتين

Cm
حلوه يا بلدى

Eb         Bb        Bb7
فين حبيب القلب يا بلدى

Cm             .
كان بعيد عنى يا بلدى

G   D7          Fm 
و كل ما بغنى بفكر فيه
Ebmaj7        Bb7         Fm7       .
قول يا حبيبى انت سايبنى و رايح فين

C          G7         Fm   Abmaj7
اجمل    لحن ده هنغنيه احنا الاتنين

Eb         Bb7       Fm7      .
يا محلا كلمه بلدى فى غنوه من سطرين

Fm      Abmaj7
يا ليل يا عين

G/D         Dm7
يا عين يا ليل

 G/D

يا ليلى يا ليلى ليلى

 

Tabs By Ziad408

 

wiamrmhanna

so nice thanks!!!!

wiamrmhanna

يسلمو شكرا

wiamrmhanna

مش فاهمة حاجة

wiamrmhanna

طب فين بقيتها
كنا بنقول ان الفراق ده مستحيل ومش موجود الباقى :(

اكتب تعليق

.الرجاء تسجيل الدخول لتكتب تعليقا