ومالو ٣

أضيف في: 2013/05/17
, عدد المشاهدات : 12346 , 5 تعليقات

عضو فضي
ameral
<< قيم هذه المشاركة 
5 تقييم, معدل: 4.00 من 55 تقييم, معدل: 4.00 من 55 تقييم, معدل: 4.00 من 55 تقييم, معدل: 4.00 من 55 تقييم, معدل: 4.00 من 5
x5

 


 

E--0--------------------0-----0--1------------------------------ 
B----33---11---00----------3--------3--------------------------- 
G-------------------2------------------------------------------- 
D--------------------------------------------------------------- 
A---------------------------------------------------------------
E---------------------------------------------------------------
E-----------0--------------------5--3--5--7--3------------------ 
B--1-3-1-3-----33---11---00------------------------------------- 
G----------------------------2---------------------------------- 
D---------------------------------------------------------------
A--------------------------------------------------------------- 
G---------------------------------------------------------------
E--0--1--0--1--3--2--3--5--1-----0-----0--1--0--1--3--0--------0 
B-----------------------------3-----3--------------------1--3--- 
G--------------------------------------------------------------- 
D--------------------------------------------------------------- 
A--------------------------------------------------------------- 
E--------------------------------------------------------------- 
ameral

allah ynawar el tab 7elw awi

ameral

33 معناها ايه ؟؟
اكيد ده مش رقم فركت

ameral

shokrn 3la eltab mn zmaaan w ana bdwr 3la tab wmalo

ameral

this is not the original tab ... this is more simpler but give the same sense

اكتب تعليق

.الرجاء تسجيل الدخول لتكتب تعليقا