أهواك

أضيف في: 2013/06/11
, عدد المشاهدات : 53683 , 3 تعليقات

عضو دياموند
wiamrmhanna
<< قيم هذه المشاركة 
3 تقييم, معدل: 4.33 من 53 تقييم, معدل: 4.33 من 53 تقييم, معدل: 4.33 من 53 تقييم, معدل: 4.33 من 53 تقييم, معدل: 4.33 من 5
x3

 Ahwak Intro

E|------------------|----------------|----------------|---------|
B|------------------|----------------|----------------|---------|
G|---------0---0----|----------------|----------------|---------|
D|-----3-3---3---3--|--2--2-3-2-3-2--|--0--0-2-0-2-0--|---------|
A|--3---------------|----------------|----------------|--3-1-0--|
E|------------------|----------------|----------------|---------|



E|-------------------|------------0-3-5--|--(6)--||
B|-------------------|------1-1-3--------|-------||
G|--------------0-2--|--3-2--------------|-------||
D|--------0-2-3------|-------------------|-------||
A|--3-1-3------------|-------------------|-------||
E|-------------------|-------------------|-------||




E|-------------------|-------------------|-------------------|---------------------|
B|-------------------|-------------------|-------------------|---------------------|
G|-------------------|-------------------|-------------------|---------------------|
D|----3-3-3-2-2-0----|----0-0-0----------|----3-3-3----------|----0-0-0------------|
A|--3-------------3--|--0-------3-1-1-0--|--3-------2-2-0----|--0-------3-1-1-0-3--|
E|-------------------|-------------------|----------------3--|---------------------|




E|---------------|----------------|---------------|---------------|
B|---------------|----------------|---------------|---------------|
G|------0---0----|----------------|---------------|---------------|  
D|--3-3---3---3--|--2-2--3-2-3-2--|--0-0-2-0-2-0--|---------------|
A|---------------|----------------|---------------|--3-1-0-1-0-3--|
E|---------------|----------------|---------------|---------------|
 
 
E|---------------|----------------|---------------|---------------|
B|---------------|----------------|---------------|---------------|
G|------0---0----|----------------|---------------|---------------|  
D|--3-3---3---3--|--2-2--3-2-3-2--|--0-0-2-0-2-0--|---------------|
A|---------------|----------------|---------------|--3-1-0-1-0-3--|
E|---------------|----------------|---------------|---------------|
 
E|-----------|--------------|-------------|---------------------------|
B|-----------|--------------|-------------|---------------------------|
G|------0-2--|--------------|-------------|------------0-2-0---0------|
D|--(3)------|--3-2----(0)--|--2-3-2-0----|------0-2-3-------3---3-2--|
A|-----------|------0-------|----------1--|--3-3----------------------|
E|-----------|--------------|-------------|---------------------------|



E|----------------|-------------------|-------------------|
B|----------------|-------------------|-------------------|
G|----------------|-------------------|-------------------|
D|--3-2-0----3-2--|--0-3-3-3-2-2-0----|----0-0-0----------|
A|---------4------|----------------3--|--0-------3-1-1-0--|
E|----------------|-------------------|-------------------|




E|------------------------------------|
B|------------------------------------|
G|------------------------------------|
D|--0-3-3-3--2-2-0-----0-0-0----------|
A|-----------------3-0-------3-1-1-3--|
E|------------------------------------|
 
wiamrmhanna

good work :D

wiamrmhanna

مفيش فيديو ليها او تسجيل صوتي حتي لو سمحت

اكتب تعليق

.الرجاء تسجيل الدخول لتكتب تعليقا