يا بدع الورد

أضيف في: 2013/06/18
, عدد المشاهدات : 5048 , لا يوجد تعليقات

مبتدئ
Elissa
<< قيم هذه المشاركة 
1 تقييم, معدل: 5.00 من 51 تقييم, معدل: 5.00 من 51 تقييم, معدل: 5.00 من 51 تقييم, معدل: 5.00 من 51 تقييم, معدل: 5.00 من 5
x1

I'm a guitar begginer this my first tab I hope I made it correctly and hope you gonna like it

 

|---------0-2-0------02---------------------
|-----33---------33-----------------------
|--2-----------------------------------
|-----------------------------------------
|-------------------------------------------
|-------------------------------------------

 

|---------0-2-0------02---------------------
|-----33---------33-----------------------
|--2-----------------------------------
|-----------------------------------------
|-------------------------------------------
|-------------------------------------------
 
 

|--2-3-0---------------0--3-2-0----3-2-0---------
|--------3-55-7-5-3-------------2--------3------
|-----------------------------------------------
|-----------------------------------------
|-------------------------------------------
|-------------------------------------------
اكتب تعليق

.الرجاء تسجيل الدخول لتكتب تعليقا