انت عمري ٢

أضيف في: 2012/10/10
, عدد المشاهدات : 55603 , 7 تعليقات

مبتدئ
mohamed_1655
<< قيم هذه المشاركة 
8 تقييم, معدل: 4.63 من 58 تقييم, معدل: 4.63 من 58 تقييم, معدل: 4.63 من 58 تقييم, معدل: 4.63 من 58 تقييم, معدل: 4.63 من 5
x8
Enta omry
كونترباص وقانون ) )                tab written by ayman habib
e|------------------------------------------0---1---0------|
B|--------------------------------1-3---1-3-------3---1----|
G|----0-2---0-2---3-0-----0-2---3-----------------------3-2|
D|----------------------4----------------------------------|
A|-0------0-----0-----0-------0-------0-------0------------|
E|---------------------------------------------------------|

 

 

e|---1---0-------------------------------------1---0-------|
B|-----3---1-------1-------------1---------------3---1-----|
G|-----------3-2-----2-0---0-2-----2-0---0-2-----------3-2-|
D|-----------------------4-------------4-------------------|
A|-0-------------0-------------0-------------0-------------|
E|---------------------------------------------------------|

 

 

e|---1---0---------1---0-----------------------------------|
B|-----3---1---------3---1-1-1-1---------------------------|
G|-----------3-2-----------------3-3-3-3-------------------|
D|---------------------------------------2-2-2-2-----------|
A|-0-------------0-----------------------------------------|
E|---------------------------------------------------------|

 

                                                ( فرقة )

                                               

e|-----------1-0---0-----------------1-0---0---------------|
B|---------------3---1-------------------3---1-------------|
G|-0-2-2-2-2-----------3-2-0-2-2-2-2-----------3-2-0-2-2-2-|
D|---------------------------------------------------------|
A|---------------------------------------------------------|
E|---------------------------------------------------------|

 

                                                                             ( جيتار )

 

e|---1-0---0-------0-1-1-0-0-0-1-1--0-0-------0-0---------0|
B|-------3---1---------------------3----3-3-3-----1-3-3-1--|
G|-2-----------3-2-----------------------------------------|
D|---------------------------------------------------------|
A|---------------------------------------------------------|
E|---------------------------------------------------------|
 
            
                      ( فرقة )
e|---0-------0-3-2---1-0---3-1-5-1-------------------------|
B|-3---1-----------3-----3---------------------------------|
G|-------3-2-------------------------------0-0-2-2-3-2-0-2-|
D|---------------------------------2-2-3-3-----------------|
A|---------------------------------------------------------|
E|---------------------------------------------------------|

 

 

e|---------------------------------------------------------|
B|-----------------3-1---1---------------------------------|
G|---------0-0-2-2-----3---3---------0-0-2-2-3-2-0-2-3-3-2-|
D|-2-2-3-3-------------------2-2-3-3----------------2------|
A|---------------------------------------------------------|
E|---------------------------------------------------------|

 

          ( جيتار )                                     ( كمان )

 

e|------------------------0-----------------------1-1-0-0--|
B|---------------------3----1-3---1------------------------|
G|-0-2---3-3-2-0---2-3----------3---2-3-0-3---0------------|
D|-----2---------4--------------------------3---2----------|
A|---------------------------------------------------------|
E|---------------------------------------------------------|

 

          ( فرقة )

 

e|-0-1-1---0-0-------0-0---------0---0------0-3-2---1-0---3|
B|-------3-----3-3-3-----1-3-3-1---3--1-----------3-----3--|
G| -------------------------------------3-2----------------|
D|---------------------------------------------------------|
A|---------------------------------------------------------|
E|---------------------------------------------------------|

 

                                                                                                ( جيتار )

e|-1-5-1--0-1-1-0-0-0-1-3-5-3-6-5---0-0-------0-1-3-2-5-3--|
B|--------------------------------3-----3-3-3--------------|
G|---------------------------------------------------------|
D|---------------------------------------------------------|
A|---------------------------------------------------------|
E|---------------------------------------------------------|

 

 

                                                          ( فرقة ) فينال

e|---------0---0------------------------------------------|
B|-1-3-3-1---3---1------1---3---1---3---1---3-------------|
G|-----------------3-2----3---2---3---2---3---2-----------|
D|--------------------------------------------------------|
A|--------------------------------------------------------|
E|--------------------------------------------------------|

 

 

 

 

 

 

 

 

 

 

 

 

 

 

 

 

 

 

 

 

 

 

 

 

 

 

 

 

Tab written by ayman habib

elfnan1200_1200@yahoo.com

 

 

 

 

 

 

 

 

mohamed_1655

تسلم ايدك رووعه

mohamed_1655

صفحة ولا اروع الله يعطيكم العافية عنجد فن روعة تسلم ايديكون تقييمي للصفحة ممتازة

mohamed_1655

بس هذي ، كان البداية !! من يستطيع أن يعطيني البقية !! وشكراً :)

mohamed_1655

thank youuuu <3 i like it

mohamed_1655

^_^ <3

mohamed_1655

أكثر من رائع, جزيل الشكر

اكتب تعليق

.الرجاء تسجيل الدخول لتكتب تعليقا