البنت الشلبية ٢

أضيف في: 2012/07/03
, عدد المشاهدات : 20790 , 3 تعليقات

مبتدئ
ABD
<< قيم هذه المشاركة 
3 تقييم, معدل: 4.00 من 53 تقييم, معدل: 4.00 من 53 تقييم, معدل: 4.00 من 53 تقييم, معدل: 4.00 من 53 تقييم, معدل: 4.00 من 5
x3

E|-0----0----0----1---0---|-----1---0-----------------|-0----1----5----3----|-1----0--------------|
B|------------------------|-3------------1---0--------|---------------------|-----------3---------|
G|------------------------|----------------------2----|---------------------|---------------------|
D|------------------------|---------------------------|---------------------|---------------------|
A|------------------------|---------------------------|---------------------|---------------------|
E|------------------------|---------------------------|---------------------|---------------------|


E|-1----1----0----0----|------0--------------------|------------------------------|
B|---------------------|-3--------3---1---0--------|-0---1---3----1---0---0-------|
G|---------------------|----------------------2----|------------------------------|
D|---------------------|---------------------------|------------------------------|
A|---------------------|---------------------------|------------------------------|
E|---------------------|---------------------------|------------------------------|


E|-------------------------0----|-1----1----0----0----|------0--------------------|
B|-------------0---1---3--------|---------------------|-3--------3---1---0--------|
G|-2---1---2--------------------|---------------------|----------------------2----|
D|------------------------------|---------------------|---------------------------|
A|------------------------------|---------------------|---------------------------|
E|------------------------------|---------------------|---------------------------|


E|------------------------------|------------------------|
B|-0---1---3----1---0---0-------|------------------------|
G|--------------------------2---|-2---1---2--------------|
D|------------------------------|------------------------|
A|------------------------------|------------------------|
E|------------------------------|------------------------|
 

ABD

شباب ليش ما فينا نطبع أو نحفظ تاب الأغنية ؟

ABD

fi tiba3a fou2 el tab mohammad :)

ABD

ye ryt law tretbou heek mou wade7 el tab

اكتب تعليق

.الرجاء تسجيل الدخول لتكتب تعليقا