ومالو ٥

أضيف في: 2012/05/09
, عدد المشاهدات : 12058 , تعليق واحد

مبتدئ
syrianguitar91
<< قيم هذه المشاركة 
6 تقييم, معدل: 4.00 من 56 تقييم, معدل: 4.00 من 56 تقييم, معدل: 4.00 من 56 تقييم, معدل: 4.00 من 56 تقييم, معدل: 4.00 من 5
x6


E||---7--7--5--5---3--2--2---2-0--0---|---0-7---5--7--8---5-----3-5-3-|
B||-----------------------------------|-------------------------------|
G||-----------------------------------|-------------------------------|
D||-----------------------------------|-------------------------------|
A||-----------------------------------|-------------------------------|
E||-----------------------------------|-------------------------------|

 

---5-7---5--5--3--2--2--2-0-0---|-----0----0--2--------7-8-7-|
--------------------------------|---0----3-------3-----------|
--------------------------------|----------------------------|
--------------------------------|----------------------------|
--------------------------------|----------------------------|
--------------------------------|----------------------------|

 

---8-10--9-10--12---------------|------------------10--------------------|
-------------------13-----------|---12-13--12-13-------12-------12-10----|
-----------------------------14-|-------------------------------------12-|
--------------------------------|----------------------------------------|
--------------------------------|----------------------------------------|
--------------------------------|----------------------------------------|

 

-----------------------------0---0-2-|---0--0-----------------------2-|
---10-12---------8-7--7-8-7----------|-----------3--3--3--2--3----3---|
-------------------------------------|--------------------------------|
--------------9----------------------|--------------------------------|
-------------------------------------|--------------------------------|
-------------------------------------|--------------------------------|

 

---0-3-2-0----------------------------0-|---------------------------------|
------------3--1--1-0--1-3-1-0-1----1---|----3--3-1--1-0-----1-0------0---|
----------------------------------------|-----------------2-----------2-0-|
----------------------------------------|---------------------------------|
----------------------------------------|---------------------------------|
----------------------------------------|---------------------------------|

 

---------------3--2--2-3-2---0---0-2-|----0--0----------------------2-|
------0------0-----------------------|----------3--3--3--2-3------3---|
----2--------------------------------|--------------------------------|
-------------------------------------|--------------------------------|
-------------------------------------|--------------------------------|
-------------------------------------|--------------------------------|

 

----0-3--2-0--------------------------0--|-----------------------------|
-------------3--1--1-0-1-3-1-0-1----1----|---3--3-1--1-0-----1-0-------|
-----------------------------------------|----------------2------------|
-----------------------------------------|-----------------------------|
-----------------------------------------|-----------------------------|
-----------------------------------------|-----------------------------|

 

------------------------||
-----3-1-0--------------||
------------------------||
------------------------||
------------------------||
------------------------||

syrianguitar91

حضرتك متأكد من النوته دى

انا حاسس ان فيها حاجة غلط

اكتب تعليق

.الرجاء تسجيل الدخول لتكتب تعليقا