انت عمري

أضيف في: 2011/12/16
, عدد المشاهدات : 22407 , 9 تعليقات

عضو برونزي
Mostafa Adel
<< قيم هذه المشاركة 
6 تقييم, معدل: 3.00 من 56 تقييم, معدل: 3.00 من 56 تقييم, معدل: 3.00 من 56 تقييم, معدل: 3.00 من 56 تقييم, معدل: 3.00 من 5
x6

انــــت عـــمرى ام كــلــثـوم

 

-------------------------------------------------------------------------------------------------------------------------E

----------------------------------------------------------------------------------1---3---------------------------------B

------------0-2------------0-2-----------3-0-----------------0-2-----------3-----------------------------------------G

-----------------------------------------------------------4-------------------------------------------------------------D

---0------------------0------------0---------------0---------------------0---------------------------------------------A

-------------------------------------------------------------------------------------------------------------------------E

 

 

---------------------------0-----------------------1-------0----------------------------------1-------0----------------E

-------------1--3---------------------------------------3-----1--------------------------------3-------1--------------B

----------------------------------------------------------------------3--2-------------------------------------3--2----G

-------------------------------------------------------------------------------------------------------------------------D

------0--------------------------------0----------------------------------------------0---------------------------------A

-------------------------------------------------------------------------------------------------------------------------E

 

 

------------------------------------------------------------------------------------------------------------------------E

---------------1------------------------------------------------1------------------------------------------------------B

---------------------2---0---------------0-2-----------------------2----0---------------0--2------------------------G

---------------------------------4-----------------------------------------------4-------------------------------------D

-----0-------------------------------------------------0---------------------------------------------------------------A

------------------------------------------------------------------------------------------------------------------------E

 

 

 

-------1------0--------------------------1-------0-------------------------1-----0----------------------------------E

----------3--------1-------------------------3-------1----------------------3-----1-1-1-1-1-----------------------B

------------------------3---2----------------------------2--1----------------------------------3-3-3-3---2-2-2-2-G

-----------------------------------------------------------------------------------------------------------------------D

--0---------------------------------0----------------------------------0----------------------------------------------A

------------------------------------------------------------------------------------------------------------------------E

 

 

                                          (3)

-------------------1-0--------0-----------------------------------------------------------------------------------------E

--------------------------3--------1------------------------------------------------------------------------------------B

---0-2-2-2-2---------------------------3-2---------------------------------------------------------------------------G

-------------------------------------------------------------------------------------------------------------------------D

-------------------------------------------------------------------------------------------------------------------------A

-------------------------------------------------------------------------------------------------------------------------E

 

 

 

--0--1-1-0-0-0-1-1--------0-0-------------0-0-------------------0--------0----------------------------------------E

-------------------------3-----------3-3-3-----------1-3-3-1-----------3--------1-----------------------------------B

---------------------------------------------------------------------------------------------3-2------------------------G

-------------------------------------------------------------------------------------------------------------------------D

-------------------------------------------------------------------------------------------------------------------------A

-------------------------------------------------------------------------------------------------------------------------E

 

                          (2)

---0-3-2------1-0--------3--1-5-1------------------------------------------------------------------------------------E

------------3-----------3-----------------------------------------------------------------------------------------------B

----------------------------------------------------------0-0-2-2-3-2-0-2--------------------------------------------G

----------------------------------------------2-2-3-3------------------------------------------------------------------D

-------------------------------------------------------------------------------------------------------------------------A

 -------------------------------------------------------------------------------------------------------------------------E

 

 

 ---------------------------------------------------------------------------------------------------------------------3--E

 ----------------------------3-1-----1-------------------0-0-2-2-3-2-0-2------3-3--2-------3-3-2-0----0-2-3----B

  --------------0-0-2-2----------3------3---2-2-3-3------------------------2-------------2--------------4----------G

 ----2-2-3-3-----------------------------------------------------------------------------------------------------------D

 ------------------------------------------------------------------------------------------------------------------------A

 ------------------------------------------------------------------------------------------------------------------------E

 

 

 ---0--------1-----------------------------------------------------------------------------------------------------------E

 --------1-------3----------1-------------------------------------------------------------------------------------------B

 ---------------------3-----------2----3---0--2-----------0-----------------------------------------------------------G

 ----------------------------------------------------3------------2-----------------------------------------------------D

 ------------------------------------------------------------------------------------------------------------------------A

 ------------------------------------------------------------------------------------------------------------------------E

 

 

 ---1-1-0-0-0-1-1---------0-0-------0-0------------0-0-------------------------------------------------------------E

 ------------------------3----------3---------3-3-3--------------------------------------------------------------------B

 ------------------------------------------------------------------------------------------------------------------------G

 ------------------------------------------------------------------------------------------------------------------------D

 ------------------------------------------------------------------------------------------------------------------------A

 ------------------------------------------------------------------------------------------------------------------------E

 

 

 --0-1-1-0-0-0-1-3-5-3-6-5--------------!-----0-0---------0-1-3-2-5-3------------------------------------------E

 ---------------------------------------------!---3-------3-3-----------------------------------------------------------B

 ---------------------------------------------!--------------------------------------------------------------------------G

 ---------------------------------------------!--------------------------------------------------------------------------D

 ---------------------------------------------!--------------------------------------------------------------------------A

 ---------------------------------------------!--------------------------------------------------------------------------E

 

 

 -------------0------0-----------------------!--------------------------------------------------------------------------E

 --1-3-3-1------3------1-------------------!---1--------3------------------------------------------------------------B

 ---------------------------------3-2--------!--------3--------2-------------------------------------------------------G

 ---------------------------------------------!--------------------------------------------------------------------------D

 ---------------------------------------------!--------------------------------------------------------------------------A

 ---------------------------------------------!--------------------------------------------------------------------------E

 

تحياتى لكم مصطفى عادل

www.facebook.com/profile.php?id=100000153819445&ref=tn_tnmn

Mostafa Adel

Hello I am the owner of this Tabs In order to see correctly, press the tab on the English and Full Screen

Mostafa Adel

Thanks Mostafa, it is now fixed on Arabic screen too, just press fll screen to see the tab properly...

Mostafa Adel
طبعا التاب داخل فى بعض علشان نشوف التاب بشكل صحيح نضغط على اللغه الانجليزيه English وبعد كده نضغط على كلمة Full Screen
Mostafa Adel

thx for tab

Mostafa Adel

welcome (:

Mostafa Adel

This Tab need some fixing ...

Mostafa Adel

شكرا جزيلا لك على هذا التاب من زمان وانا بدور عليه

Mostafa Adel

مش عارفه العبها خالص

Mostafa Adel

thnx

اكتب تعليق

.الرجاء تسجيل الدخول لتكتب تعليقا