نسم علينا الهوى

أضيف في: 2011/09/26
, عدد المشاهدات : 18543 , 5 تعليقات

ادارة الموقع
Guitarabia
<< قيم هذه المشاركة 
3 تقييم, معدل: 4.67 من 53 تقييم, معدل: 4.67 من 53 تقييم, معدل: 4.67 من 53 تقييم, معدل: 4.67 من 53 تقييم, معدل: 4.67 من 5
x3

رابط الأغنية (?)

          

موسيقى:

 

  Am          Am          Am      G       F       E

|---0-1-0-0-|---0-1-0-0-|-3-5-7-3-1-3-5-1-0-1-3-1-0-|

|-3---------|-3---------|---------------------------|

|-----------|-----------|---------------------------|

|-----------|-----------|---------------------------|

|-----------|-----------|---------------------------|

|-----------|-----------|---------------------------|

 

                          Am

|-1-0-------|-----0---------|

|-----3-1-0-|-1-3---3-1-0---|

|-----------|-------------2-|

|-----------|---------------|

|-----------|---------------|

|-----------|---------------|

 

              G       F       E

|----------------------------------|

|-0-1-3-1-0------------------------|

|-----------2-0-----------0--------|

|---------------3-2-0-2-3---3-2----|

|----------------------------------|

|----------------------------------|

 

 

 

  Am

نسم علينا الهوى من مفرق الوادي

E        F       G       Am

يا هوى دخل الهوى خدني على بلادي×2

 

C            Dm       Am

ياهوى ياهوى ياللي طاير بالهوى

E   F          G         Am         C

في منتوره طاقه وصورهخدني لعندن يا هوى

 

F              E

فزعانه يا قلبياكبر بهالغربه

E F   G   Am          E             G

ماتعرفني بلاديخدنيخدني خدني على بلادي

 

Am

نسم علينا الهوى من مفرق الوادي

E        F       G       Am

يا هوى دخل الهوى خدني على بلادي×2

 

)موسيقى(

 

C               Dm          Am

شو بينا شوبينايا حبيبي شو بينا

E    F      G         Am        C

كنت وكنا تضلو عناوافترقنا شو بينا×2

 

F                 E

وبعدا الشمس بتبكيعالباب وما تحكي

E F   G   Am          E              G

ويحكي هوى بلاديخدنيخدني خدني على بلادي

 

  Am

نسم علينا الهوى من مفرق الوادي

E        F       G       Am

يا هوى دخل الهوى خدني على بلادي×2

Guitarabia

شكراااااااااااااااااااا

Guitarabia

jameel ...

Guitarabia

الريتم أو الإيقاع المستخدم وشكرا؟

Guitarabia

مرحبا آمين,
الرتم المستخدم هو الإيقاع البلدي
http://www.guitarabia.com/browse/lessons/rhythms/baladi-rhythm

Guitarabia team

Guitarabia

مشكور

اكتب تعليق

.الرجاء تسجيل الدخول لتكتب تعليقا