البنت الشلبية

أضيف في: 2011/09/17
, عدد المشاهدات : 39207 , 6 تعليقات

ادارة الموقع
Guitarabia
<< قيم هذه المشاركة 
7 تقييم, معدل: 3.43 من 57 تقييم, معدل: 3.43 من 57 تقييم, معدل: 3.43 من 57 تقييم, معدل: 3.43 من 57 تقييم, معدل: 3.43 من 5
x7

|----------0-1--4-5-7-4--8-7-5-------------5----|

|---0-1--3---------------------8-6-5-------5----|

|-2----------------------------------7-5-4-5----|

|------------------------------------------7----|

|------------------------------------------7----|

|------------------------------------------5----|

 

  Am                       Dm                           Am           E

|-0-0-0-1-0---1-0--0-1-3S5-3-1-0----1-1-0-0-----0-----------------------|

|-----------3--------------------3----------3-1---3-1-0----0-1-3-1-0-0--|

|-------------------------------------------------------2---------------|

|-----------------------------------------------------------------------|

|-----------------------------------------------------------------------|

|-----------------------------------------------------------------------|

 

              Am Dm                   Am          E     Am

|----------------1-1-0-0-----0-------------------------------|

|-------0-1-3-0----------3-1---3-1--0---0-1-3-1-0-0----------|

|-1-2-1-------------------------------2-------------2-1-2----|

|------------------------------------------------------------|

|------------------------------------------------------------|

|------------------------------------------------------------|

 

Dm A                    Am

البنت الشلبية عيونا لوزية

 

Am  E        Am               Dm

حبك من قلبي با قلبي إنتي عينيا 2x     

 

Dm A               Am

حد القناطر محبوبي ناطر

 

Am  E        Am               Dm

كسر الخواطر يا ولفي ما هان عليا 2x    

 

Dm    Am       E     Am

بتطل بتلوح و القلب مجروح

Am     E     Am       Dm

و أيام عالبال بتعن و تروح

Am     E     Am       Dm

و أيام عالبال بتعن و تروح

 

 

Dm A                    Am

البنت الشلبية عيونا لوزية

 

Am  E        Am               Dm

حبك من قلبي با قلبي إنتي عينيا 2x     

 

)موسيقى(

 

Dm A               Am

تحت الرمانة حبي حاكاني

Am  E         Am                  Dm

و سمعني غناني يا عيوني و أتغزل فيا

Am  E         Am          Dm      Am

و سمعني غناني يا عيوني و أتغزل فيا

 

 

Dm A                    Am

البنت الشلبية عيونا لوزية

 

Am  E        Am               Dm

حبك من قلبي با قلبي إنتي عينيا 2x     

 

Guitarabia

مشكوووووووووووور

Guitarabia

Pleas i need a rittem and thankyou

Guitarabia

hi ciwan,
its the spanish rhythm, you can find it under lessons> rhythm

Guitarabia

y u dnt post it as notes?
i dnt understand it this way

Guitarabia

the TAB is not clear help me please :/

Guitarabia

الله يفرحكم كما فرحتوني بهاد السايت الاكتر من راىع كنت تنقلب على أغاني فيروز من زمان وأغاني عمرو دياب مجهود جبار من الناس لي تشتغل في هاد الويب سايت

اكتب تعليق

.الرجاء تسجيل الدخول لتكتب تعليقا