لو على قلبي

أضيف في: 2011/09/17
, عدد المشاهدات : 34318 , 12 تعليقات

ادارة الموقع
Guitarabia
<< قيم هذه المشاركة 
8 تقييم, معدل: 4.75 من 58 تقييم, معدل: 4.75 من 58 تقييم, معدل: 4.75 من 58 تقييم, معدل: 4.75 من 58 تقييم, معدل: 4.75 من 5
x8

 

|----------5-----5-----5------5-5-5-6-5-------------3--------------|
|----5-6-7---6-----6-----6--------------8-6-8-----8-3------5-6-8-8-|
|--7-----------7-----7-----7--------------------7---3--6-7-------7-|
|---------------------------------------------5-----5------------5-|
|---------------------------------------------------5--------------|
|---------------------------------------------------3--------------|

|-------5-----------------------------------------3------------------|
|-8-8-8---8-6-5-6-6--------5-6-6--6-6-6-8-6-5---5-5--5-5-5-6-5-------|
|-----------------5----5-7-----5--------------7---5------------7-5-7-|
|-----------------7--8---------7------------------5------------------|
|-----------------8------------8------------------3------------------|
|-----------------5------------5-------------------------------------|

|-5-----------------5----|
|-5-------5---------5----|
|-6-7-7-7---7-6-7-6-6----|
|-7-----------------7----|
|-7-----------------7----|
|-8-----------------5----|

 capo on 5

guitar Rhythm: http://www.guitarabia.com/en/browse/lessons/rhythms/baladi-rhythm/

-------------------

G     Dm          Am

لو على قلبي داب في هواك وكفايه

F    C      

ليل و سهر وعناد ويايا

E     

جوا عيوني حنين و غرام مشتاق لعنيك

  

G  Dm          Am

قلبي نادالك حن فيوم وتعالا

F   C       

وأدّيك روحي بس تعالا

E    

يلي بحبك قرب طمن قلبي عليك

 

 Dm  A   G     Am

بتغيب أيام وليالي

 F        C     G     

و إنت ما بتغيب عن بالي

Am    E     Am       G

و تروح وتسبني عليك مشغول

Dm   A      G     Am

بحلم بعنيك و غرامك

F       C    G     

وبدوب في هواك و كلامك

Am   E     Am    G  

ولا ليلة أناليّ علي تطول


 G     Dm          Am

لو على قلبي داب في هواك وكفايه

F    C      

ليل و سهر وعناد ويايا

E     

جوا عيوني حنين و غرام مشتاق لعنيك

 

-- موسيقى --

Am > A > Dm > G > Dm > E > A > Dm > G > Dm > E > Am > A > Dm > G > Dm > E > A > Dm > G > Dm > E > Am


 G     Dm          Am

إسمع مني و عيش مع قلبي زماني

       F     C      

و تدوب فيا و احبك تاني

E     

كفايه عشت كتير من قبلك بحلم بيك

 

  G     Dm       Am

تبعد عني ليه طب منا قدامك

       F     C      

بسأل قلبك إيه أحلامك

E      

لو تتمنى الدنيا بحالها... تكون بإيديك

 

 Dm  A   G     Am

بتغيب أيام وليالي

 F        C     G     

و إنت ما بتغيب عن بالي

Am    E     Am       G

و تروح وتسبني عليك مشغول

Dm   A      G     Am

بحلم بعنيك و غرامك

F       C    G     

وبدوب في هواك و كلامك

Am   E     Am    G  

ولا ليلة أناليّ علي تطول


 G     Dm          Am

لو على قلبي داب في هواك وكفايه

F    C      

ليل و سهر وعناد ويايا

E     

جوا عيوني حنين و غرام مشتاق لعنيك

 

 G  Dm          Am

قلبي نادالك حن فيوم وتعالا

F   C       

وأدّيك روحي بس تعالا

E    

يلي بحبك قرب طمن قلبي عليك

 

 

Guitarabia

Can you please post the intro :)

Guitarabia

Hi Celine, we added the intro tabs, enjoy!

Guitarabia

Thanks a lot :D

Guitarabia

ca serais sympa si vous pouvez poster la tablature de "Ya Ghayéb " de Fadhel

Guitarabia

thanks a lot

Guitarabia

i need some help. i tried to copy the tabs for printing it and trying to play it. but it did not work with me . how can i copy the tabs ?

Guitarabia

just click the print button on the top of the tab

Guitarabia

Hi Yasserco, we disabled the copying as some content was being copied on other websites without prpoer referencing.

If you need to prin the tabs, simply press print from the browser, we are also working on a more print friendly version to be printed instead of the whole page

thanks
Guitarabia

Guitarabia

i want to know the rythm of the song, and the time of 4_4? ممكن نعرف الايقاع؟ الزمن اكيد 4_4 لكن الايقاع مهم

Guitarabia

i found now the rhythm on the video, but it is much easier to write it down , thanks alot for this site

Guitarabia

8
7
7
6
5
5الجزء الاخير من التاب الكورد مستحيل عزفو

Guitarabia

و بحس ان الصولو حلو كتير بس الكورد الي بالصولو مش راكب كتير على الصولو

اكتب تعليق

.الرجاء تسجيل الدخول لتكتب تعليقا