زينة 4

أضيف في: 2015/12/28
, عدد المشاهدات : 7832 , لا يوجد تعليقات

مبتدئ
Amir Off
<< قيم هذه المشاركة 
2 تقييم, معدل: 3.00 من 52 تقييم, معدل: 3.00 من 52 تقييم, معدل: 3.00 من 52 تقييم, معدل: 3.00 من 52 تقييم, معدل: 3.00 من 5
x2
-------------------------------------------------------------------------------
			     Babylone - Zina
-------------------------------------------------------------------------------

Tabbed by: Amir Off
E-mail: ameer157@gmail.com
Website: www.amiroff.me
Tuning: EADGBE


Intro (6x):

E|---------3----3-------------3----3-------------3----3-------------2---2-3---|
B|-----3----------3-------3----------3-------3----------3-------3-------------|
G|---0---0----0---------0---0----0---------2---2----2---------2---2---2-------|
D|---------------------------------------0------------------0-----------------|
A|--------------------3-------------------------------------------------------|
E|-3--------------------------------------------------------------------------|


Bridge:

e|----------------------------------------------------------------------------|
B|----------------------------------------------------------------------------|
G|-7s9-7--------7------------7-9-----7----------------------------------------|
D|-------9--7s9---7-5-7--7h9-----7h9---7-5-7------5-5-------------------------|
A|-------------------------------------------5h7------------------------------|
E|----------------------------------------------------------------------------|

e|----------------------------------------------------------------------------|
B|--------------------------------8-7-----------------------------------------|
G|-7s9-7--------7------------7-9------7---------------------------------------|
D|-------9--7s9---7-5-7--7h9-------------7-7s9-9-7-5--------------------------|
A|----------------------------------------------------------------------------|
E|----------------------------------------------------------------------------|

Verse Intro

E|----------3----3-------------3----3-------------2---2-3---------------------|
B|------3----------3-------3----------3-------3-------------------------------|
G|----0---0----0---------2---2----2---------2---2---2-------------------------|
D|---------------------0------------------0-----------------------------------|
A|--3-------------------------------------------------------------------------|
E|----------------------------------------------------------------------------|

Verse (5x)

E|---------3----3-------------3----3-------------3----3-------------2---2-3---|
B|-----3----------3-------3----------3-------3----------3-------3-------------|
G|---0---0----0---------0---0----0---------2---2----2---------2---2---2-------|
D|---------------------------------------0------------------0-----------------|
A|--------------------3-------------------------------------------------------|
E|-3--------------------------------------------------------------------------|

Bridge:

e|----------------------------------------------------------------------------|
B|----------------------------------------------------------------------------|
G|-7s9-7--------7------------7-9-----7----------------------------------------|
D|-------9--7s9---7-5-7--7h9-----7h9---7-5-7------5-5-------------------------|
A|-------------------------------------------5h7------------------------------|
E|----------------------------------------------------------------------------|

e|----------------------------------------------------------------------------|
B|--------------------------------8-7-----------------------------------------|
G|-7s9-7--------7------------7-9------7---------------------------------------|
D|-------9--7s9---7-5-7--7h9-------------7-7s9-9-7-5--------------------------|
A|----------------------------------------------------------------------------|
E|----------------------------------------------------------------------------|

Verse Intro (Chords):

E|-3--3-3-3-3--3-3-3-3---3--3-3-3-3--3-3-3-3---2-2-2-2--2-2-2-2--2-2-3--------|
B|-3--3-3-3-3--3-3-3-3---3--3-3-3-3--3-3-3-3---3-3-3-3--3-3-3-3--3-3-3--------|
G|-0--0-0-0-0--0-0-0-0---2--2-2-2-2--2-2-2-2---2-2-2-2--2-2-2-2--2-2-2--------|
D|-2--2-2-2-2--2-2-2-2---0--0-0-0-0--0-0-0-0----------------------------------|
A|-3--3-3-3-3--3-3-3-3--------------------------------------------------------|
E|----------------------------------------------------------------------------|

Verse (Chords) (5x):

E|-3--3-3-3-3--3-3-3-3---3--3-3-3-3--3-3-3-3---3--3-3-3-3--3-3-3-3------------|
B|-3--3-3-3-3--3-3-3-3---3--3-3-3-3--3-3-3-3---3--3-3-3-3--3-3-3-3------------|
G|-0--0-0-0-0--0-0-0-0---0--0-0-0-0--0-0-0-0---2--2-2-2-2--2-2-2-2------------|
D|-0--0-0-0-0--0-0-0-0---2--2-2-2-2--2-2-2-2---0--0-0-0-0--0-0-0-0------------|
A|-2--2-2-2-2--2-2-2-2---3--3-3-3-3--3-3-3-3----------------------------------|
E|-3--3-3-3-3--3-3-3-3--------------------------------------------------------|

E|-2-2-2-2--2-2-2-2--2-2-3----------------------------------------------------|
B|-3-3-3-3--3-3-3-3--3-3-3----------------------------------------------------|
G|-2-2-2-2--2-2-2-2--2-2-2----------------------------------------------------|
D|----------------------------------------------------------------------------|
A|----------------------------------------------------------------------------|
E|----------------------------------------------------------------------------|

Outro:

e|----------------------------------------------------------------------------|
B|----------------------------------------------------------------------------|
G|-----7-----7----------7-----7----------7-----7------------------------------|
D|-7s9---7s9---7-5--7s9---7s9---7-5--7s9---7s9---7-5--5h7-7-5h7-7-----5h7-5-5-|
A|----------------------------------------------------------------5h7---------|
E|----------------------------------------------------------------------------|
اكتب تعليق

.الرجاء تسجيل الدخول لتكتب تعليقا