(راجع يتعمر لبنان (البداية

أضيف في: 2013/04/11
, عدد المشاهدات : 5146 , 4 تعليقات

مبتدئ
MarcusK
<< قيم هذه المشاركة 
0 تقييم, معدل: 0.00 من 50 تقييم, معدل: 0.00 من 50 تقييم, معدل: 0.00 من 50 تقييم, معدل: 0.00 من 50 تقييم, معدل: 0.00 من 5
x0
This is just the first part of the intro where the violins are playing. It's one of my favorite intro's, so enjoy.
 
E|---------------------------5-------------------------------|
B|-5-6-5-----------5-6-5-6-8---8-6-5-6-5----------5----------|
G|-------7-6-7-6-7-----------------------7-6h7p6h7-----------|
D|-----------------------------------------------------------|
A|-----------------------------------------------------------|
E|-----------------------------------------------------------|
 
The rhythm is steady until the hammer-ons and pull-offs, when it doubles.
 
It would be great if someone can help finish it off.
 
Another possibility is to play the power chords on electric:
 
E5-F5-E5-D5-C#5-D5-C#5-D5-E5-F5-E5-F5-G5-A5-G5-F5-E5-F5-E5-D5-C#5/D5-C#5/D5-E5
(for the chord shapes the root is played on the A string)
E|-----------------------------------------------------------|
B|-----------------------------------------------------------|
G|-9-10-9-7-6-7-6-7-9-10-9-10-12-14-12-10-9-10-9-7-6/7\6/7-9-|
D|-9-10-9-7-6-7-6-7-9-10-9-10-12-14-12-10-9-10-9-7-6/7\6/7-9-|
A|-7-8--7-5-4-5-4-5-7-8--7-8--10-12-10-8--7-8--7-5-4/5\4/5-7-|
E|-----------------------------------------------------------|
C#5/D5 is a slide from C#5 to D5.
As far as rhythm is concerned, It sounds great if you can play double notes of each until the slide. Some good distortion and a bit of palm muting makes it sound great.
MarcusK

مشكور بس كتير معقدها في الكوردات

MarcusK

thanks for the chords
if you can record a video and post it here it will be helpful

MarcusK

I will try to get one done soon.
In the mean time, I will update the tabs for the chords as well.

MarcusK

نبي تاباب أكثر

اكتب تعليق

.الرجاء تسجيل الدخول لتكتب تعليقا