فكرت طول اليوم ٢

أضيف في: 2013/11/21
, عدد المشاهدات : 3782 , لا يوجد تعليقات

عضو دياموند
wiamrmhanna
<< قيم هذه المشاركة 
0 تقييم, معدل: 0.00 من 50 تقييم, معدل: 0.00 من 50 تقييم, معدل: 0.00 من 50 تقييم, معدل: 0.00 من 50 تقييم, معدل: 0.00 من 5
x0

 

 

e|-1s3-2-0--0--------------------------8-8p7------------------------|

B|--------------3-3-3--1-1----0-1-0------------10-8-7-8-10-8-7------|

G|--------------------------2----------------------------------8p6p8|

D|------------------------------------------------------------------|

A|------------------------------------------------------------------|

E|------------------------------------------------------------------|

 

e|----------------------------------------------------5---5-7-7-----|

B|---8-8-8-6-5---5--8-8-8-6-5---------------5---5-7-8---8-----------|

G|-------------8--------------7p5----4h6-4----8---------------------|

D|---------------------------------7--------------------------------|

A|------------------------------------------------------------------|

E|------------------------------------------------------------------|

 

e|-7h8p7------------------------------------------------------------|

B|--------10-8-7---7h8h10-7-7h8--5---------------------4-5-7--------|

G|---------------9-----------------7-5-4---5-5~~~--4-5-------5-4----|

D|---------------------------------------7-------7------------------|

A|------------------------------------------------------------------|

E|------------------------------------------------------------------|

 

e|-------------5h7-7-7h10p7-----------------------------------------|

B|-7-7h8p7-8-7--------------10-8-7---7-7h8h10-8-10-10-8-7-----------|

G|---------------------------------9----------------------9-7-7-7~h7|

D|------------------------------------------------------------------|

A|------------------------------------------------------------------|

E|------------------------------------------------------------------|

 

e|---------------------------7-8-7—7h8h7----------------------------|
B|--------------------7-8-10-------------10-8-7-8-10----------------|
G|----------------8-9--------------------------------9-7-9----------|
D|----10-9-8-9-10---------------------------------------------------|
A|------------------------------------------------------------------|
E|------------------------------------------------------------------|

Em

فكرت طول اليوم و مفيش سبب مفهوم

 Em                 B7         C

خلانى اعرف اقول ايه اللى حسيته

Em           Am7  Em        Am6 
فجأه لاقتنى معاه عايشين فى احلا حياه

Em            B7        C

لله كده فى لله لاقيتنى حبيته 


C            Em

ضيعت وقت كبير ناقيصنى حاجات كتير

Em     B  Am7          Am

 و معاك حبيى خلاص لاقته و زياده

Am7            C7               Em
كل اللى بحلم بيه انا عايشه جنبك فيه

Em            B7             Am7

انا اللى هحتاج ليه صداقنى ولا حاجه 


C                Em 

فى ناس كتير عايشين يحبو بعض سنين

Em      B                     Am7

 و انا عيشت ده فى يومين جنبك و عديته

Am          C7                 Em
اللى فى هواك حساه فوق اللى انا بتمناه

Em              B7                  Am

كلى اللى انا عايزاه فى الحب انا لاقيته

(SOLO)

           Am7                 C                        Em

انا عيشت سنين حياتى بعمل ايه و عمرى ده ضيعته ليه انا مش هعيش

B7        

من غير هواك لو يحصل ايه

اكتب تعليق

.الرجاء تسجيل الدخول لتكتب تعليقا