وحشتيني ٢

أضيف في: 2013/02/20
, عدد المشاهدات : 8345 , 2 تعليقات

عضو فضي
MatriXTheSinger
<< قيم هذه المشاركة 
2 تقييم, معدل: 4.00 من 52 تقييم, معدل: 4.00 من 52 تقييم, معدل: 4.00 من 52 تقييم, معدل: 4.00 من 52 تقييم, معدل: 4.00 من 5
x2


Intro:



     F        C       Am       D          F          C            Am       C

E:-------|---------|-------|----------|-------|----------------|-------|-------|

B:-------|---------|-------|----------|-------|----------------|-------|-------|

G:-------|------0--|-------|-------2--|-------|-----0----------|-------|-------|  Repeat

D:--(3)--|-2-------|--(2)--|--4--0----|--(3)--|-2-------2-3-2--|--(2)--|-------|

A:-------|---3-----|-------|----------|-------|---3------------|-------|--(3)--|

E:-------|---------|-------|----------|-------|----------------|-------|-------|







$



E:------------------|--------------------|--------------------|----------------------|

B:------------------|--1-----------------|--1-----------------|----------------------|

G:--2-2-2-2--3-2-0--|----3--2-2-2-3-2-0--|----3--2-2-2-3-2-0--|--0----0---------0-2--|    Repeat

D:------------------|--------------------|--------------------|----3----3-2--3-------|

A:------------------|--------------------|--------------------|----------------------|

E:------------------|--------------------|--------------------|----------------------|











E:----------------0----|------------------------|----------------0----|----------------0-0--|

B:----3-3-3-1-3-1---1--|---------3-3-1---1------|----3-3-3-1-3-1---1--|--------3-3-2-3------|

G:--2------------------|--3-3-3--------3---3-2--|--2------------------|--3-3-3--------------|

D:---------------------|------------------------|---------------------|---------------------|

A:---------------------|------------------------|---------------------|---------------------|

E:---------------------|------------------------|---------------------|---------------------|







E:----1-1-1-0-0--|--0-0-0-0--|--0-0-------|-----------|-------------|---------|-----------|--0-0--|

B:---------------|-----------|-------3-3--|--3-3-3-3--|--3-1-1-1-1--|---------|--3-3-2-3--|-------|

G:--2------------|-----------|------------|-----------|-------------|--3-3-3--|-----------|-------|

D:---------------|-----------|------------|-----------|-------------|---------|-----------|-------|

A:---------------|-----------|------------|-----------|-------------|---------|-----------|-------|

E:---------------|-----------|------------|-----------|-------------|---------|-----------|-------|   


ღ♥ღ Mostafa MatriX ღ♥ღ

Https://Www.FaceBook.Com/MatriXTheSinger

MatriXTheSinger

الأرقام اللي موجوده دية وظيفتها إية بالظبط

MatriXTheSinger

الأرقام اللي بين الأقواس أقصد

اكتب تعليق

.الرجاء تسجيل الدخول لتكتب تعليقا